  0
SECTION
  2
HEADER
  9
$ACADVER
  1
AC1009
  9
$INSBASE
 10
0.0
 20
0.0
 30
0.0
  9
$EXTMIN
 10
-10682.94874422
 20
-25606.68429907
 30
0.0
  9
$EXTMAX
 10
20474.81697129
 20
-11155.62426345
 30
2.0
  9
$LIMMIN
 10
0.0
 20
0.0
  9
$LIMMAX
 10
12.0
 20
9.0
  9
$ORTHOMODE
 70
     1
  9
$REGENMODE
 70
     1
  9
$FILLMODE
 70
     1
  9
$QTEXTMODE
 70
     0
  9
$MIRRTEXT
 70
     1
  9
$DRAGMODE
 70
     2
  9
$LTSCALE
 40
200.0
  9
$OSMODE
 70
     0
  9
$ATTMODE
 70
     1
  9
$TEXTSIZE
 40
500.0
  9
$TRACEWID
 40
0.05
  9
$TEXTSTYLE
  7
STANDARD
  9
$CLAYER
  8
0
  9
$CELTYPE
  6
CONTINUOUS
  9
$CECOLOR
 62
   256
  9
$DIMSCALE
 40
1.0
  9
$DIMASZ
 40
0.18
  9
$DIMEXO
 40
0.0625
  9
$DIMDLI
 40
0.38
  9
$DIMRND
 40
0.0
  9
$DIMDLE
 40
0.0
  9
$DIMEXE
 40
0.18
  9
$DIMTP
 40
0.0
  9
$DIMTM
 40
0.0
  9
$DIMTXT
 40
0.18
  9
$DIMCEN
 40
0.09
  9
$DIMTSZ
 40
0.0
  9
$DIMTOL
 70
     0
  9
$DIMLIM
 70
     0
  9
$DIMTIH
 70
     1
  9
$DIMTOH
 70
     1
  9
$DIMSE1
 70
     0
  9
$DIMSE2
 70
     0
  9
$DIMTAD
 70
     0
  9
$DIMZIN
 70
     0
  9
$DIMBLK
  1

  9
$DIMASO
 70
     1
  9
$DIMSHO
 70
     1
  9
$DIMPOST
  1

  9
$DIMAPOST
  1

  9
$DIMALT
 70
     0
  9
$DIMALTD
 70
     2
  9
$DIMALTF
 40
25.4
  9
$DIMLFAC
 40
1.0
  9
$DIMTOFL
 70
     0
  9
$DIMTVP
 40
0.0
  9
$DIMTIX
 70
     0
  9
$DIMSOXD
 70
     0
  9
$DIMSAH
 70
     0
  9
$DIMBLK1
  1

  9
$DIMBLK2
  1

  9
$DIMSTYLE
  2
*UNNAMED
  9
$DIMCLRD
 70
     0
  9
$DIMCLRE
 70
     0
  9
$DIMCLRT
 70
     0
  9
$DIMTFAC
 40
1.0
  9
$DIMGAP
 40
0.09
  9
$LUNITS
 70
     2
  9
$LUPREC
 70
     4
  9
$SKETCHINC
 40
0.1
  9
$FILLETRAD
 40
0.0
  9
$AUNITS
 70
     0
  9
$AUPREC
 70
     0
  9
$MENU
  1
acad
  9
$ELEVATION
 40
0.0
  9
$PELEVATION
 40
0.0
  9
$THICKNESS
 40
0.0
  9
$LIMCHECK
 70
     0
  9
$BLIPMODE
 70
     0
  9
$CHAMFERA
 40
0.0
  9
$CHAMFERB
 40
0.0
  9
$SKPOLY
 70
     0
  9
$TDCREATE
 40
2448777.052969328
  9
$TDUPDATE
 40
2449633.423937616
  9
$TDINDWG
 40
0.6154542824
  9
$TDUSRTIMER
 40
0.6154542824
  9
$USRTIMER
 70
     1
  9
$ANGBASE
 50
0.0
  9
$ANGDIR
 70
     0
  9
$PDMODE
 70
    33
  9
$PDSIZE
 40
40.0
  9
$PLINEWID
 40
400.0
  9
$COORDS
 70
     2
  9
$SPLFRAME
 70
     0
  9
$SPLINETYPE
 70
     6
  9
$SPLINESEGS
 70
     8
  9
$ATTDIA
 70
     0
  9
$ATTREQ
 70
     1
  9
$HANDLING
 70
     0
  9
$HANDSEED
  5
0
  9
$SURFTAB1
 70
    32
  9
$SURFTAB2
 70
    32
  9
$SURFTYPE
 70
     6
  9
$SURFU
 70
     6
  9
$SURFV
 70
     6
  9
$UCSNAME
  2

  9
$UCSORG
 10
0.0
 20
0.0
 30
0.0
  9
$UCSXDIR
 10
1.0
 20
0.0
 30
0.0
  9
$UCSYDIR
 10
0.0
 20
1.0
 30
0.0
  9
$PUCSNAME
  2

  9
$PUCSORG
 10
0.0
 20
0.0
 30
0.0
  9
$PUCSXDIR
 10
1.0
 20
0.0
 30
0.0
  9
$PUCSYDIR
 10
0.0
 20
1.0
 30
0.0
  9
$USERI1
 70
     0
  9
$USERI2
 70
     0
  9
$USERI3
 70
     0
  9
$USERI4
 70
     0
  9
$USERI5
 70
     0
  9
$USERR1
 40
0.0
  9
$USERR2
 40
0.0
  9
$USERR3
 40
0.0
  9
$USERR4
 40
0.0
  9
$USERR5
 40
0.0
  9
$WORLDVIEW
 70
     1
  9
$SHADEDGE
 70
     3
  9
$SHADEDIF
 70
    70
  9
$TILEMODE
 70
     1
  9
$MAXACTVP
 70
    16
  9
$PINSBASE
 10
0.0
 20
0.0
 30
0.0
  9
$PLIMCHECK
 70
     0
  9
$PEXTMIN
 10
1.00000000E+20
 20
1.00000000E+20
 30
1.00000000E+20
  9
$PEXTMAX
 10
-1.00000000E+20
 20
-1.00000000E+20
 30
-1.00000000E+20
  9
$PLIMMIN
 10
0.0
 20
0.0
  9
$PLIMMAX
 10
12.0
 20
9.0
  9
$UNITMODE
 70
     0
  9
$VISRETAIN
 70
     0
  9
$PLINEGEN
 70
     0
  9
$PSLTSCALE
 70
     0
  9
$TREEDEPTH
 70
  3020
  9
$DWGCODEPAGE
  3
undefined
  0
ENDSEC
  0
SECTION
  2
TABLES
  0
TABLE
  2
VPORT
 70
     2
  0
VPORT
  2
*ACTIVE
 70
     0
 10
0.0
 20
0.0
 11
1.0
 21
1.0
 12
5812.76524557
 22
-14231.09745861
 13
0.0
 23
0.0
 14
1.0
 24
1.0
 15
0.0
 25
0.0
 16
0.0
 26
0.0
 36
1.0
 17
0.0
 27
0.0
 37
0.0
 40
22751.17368092
 41
1.45009785
 42
50.0
 43
0.0
 44
0.0
 50
0.0
 51
0.0
 71
     0
 72
   100
 73
     1
 74
     3
 75
     0
 76
     0
 77
     0
 78
     0
  0
ENDTAB
  0
TABLE
  2
LTYPE
 70
     2
  0
LTYPE
  2
CONTINUOUS
 70
    64
  3
Solid line
 72
    65
 73
     0
 40
0.0
  0
LTYPE
  2
DASHED
 70
    64
  3
__ __ __ __ __ __ __ __ __ __ __ __ __ __ __ __
 72
    65
 73
     2
 40
0.75
 49
0.5
 49
-0.25
  0
ENDTAB
  0
TABLE
  2
LAYER
 70
    11
  0
LAYER
  2
0
 70
    64
 62
     7
  6
CONTINUOUS
  0
LAYER
  2
CTDYKE
 70
    64
 62
     3
  6
DASHED
  0
LAYER
  2
CTIF
 70
    64
 62
    10
  6
DASHED
  0
LAYER
  2
CTSKN
 70
    64
 62
     4
  6
DASHED
  0
LAYER
  2
CTMIN
 70
    64
 62
     1
  6
DASHED
  0
LAYER
  2
CTUM
 70
    64
 62
     6
  6
DASHED
  0
LAYER
  2
GRID
 70
    64
 62
     7
  6
CONTINUOUS
  0
LAYER
  2
CTSED
 70
    64
 62
     7
  6
DASHED
  0
LAYER
  2
SHR
 70
    64
 62
     7
  6
CONTINUOUS
  0
LAYER
  2
FAULTRACE
 70
     0
 62
     7
  6
CONTINUOUS
  0
LAYER
  2
BORDER
 70
    64
 62
     7
  6
CONTINUOUS
  0
ENDTAB
  0
TABLE
  2
STYLE
 70
     1
  0
STYLE
  2
STANDARD
 70
     0
 40
0.0
 41
1.0
 50
0.0
 71
     0
 42
500.0
  3
txt
  4

  0
ENDTAB
  0
TABLE
  2
VIEW
 70
     0
  0
ENDTAB
  0
TABLE
  2
UCS
 70
     0
  0
ENDTAB
  0
TABLE
  2
APPID
 70
     1
  0
APPID
  2
ACAD
 70
    64
  0
ENDTAB
  0
TABLE
  2
DIMSTYLE
 70
     0
  0
ENDTAB
  0
ENDSEC
  0
SECTION
  2
BLOCKS
  0
BLOCK
  8
0
  2
FLTRACE
 70
    64
 10
0.0
 20
0.0
 30
0.0
  3
FLTRACE
  0
LINE
  8
BORDER
 10
3.375
 20
-0.65
 30
0.0
 11
5.625
 21
0.65
 31
0.0
  0
LINE
  8
BORDER
 10
-5.625
 20
-0.65
 30
0.0
 11
-3.375
 21
0.65
 31
0.0
  0
LINE
  8
BORDER
 10
1.125
 20
0.65
 30
0.0
 11
3.375
 21
-0.65
 31
0.0
  0
LINE
  8
BORDER
 10
-1.125
 20
-0.65
 30
0.0
 11
1.125
 21
0.65
 31
0.0
  0
LINE
  8
BORDER
 10
-3.375
 20
0.65
 30
0.0
 11
-1.125
 21
-0.65
 31
0.0
  0
ENDBLK
  8
0
  0
BLOCK
  8
0
  2
*X1
 70
    65
 10
0.0
 20
0.0
 30
0.0
  3
*X
  0
LINE
  8
0
  6
CONTINUOUS
 62
     0
 10
-7807.1632357
 20
-17353.10478172
 30
0.0
 11
-7629.94222395
 21
-17175.88376997
 31
0.0
  0
LINE
  8
0
  6
CONTINUOUS
 62
     0
 10
-8200.90707349
 20
-17393.29522892
 30
0.0
 11
-8070.07527716
 21
-17262.46343259
 31
0.0
  0
LINE
  8
0
  6
CONTINUOUS
 62
     0
 10
-8594.65091129
 20
-17433.48567612
 30
0.0
 11
-8510.20833037
 21
-17349.0430952
 31
0.0
  0
LINE
  8
0
  6
CONTINUOUS
 62
     0
 10
-8989.30749957
 20
-17474.58887381
 30
0.0
 11
-8936.58726154
 21
-17421.86863578
 31
0.0
  0
LINE
  8
0
  6
CONTINUOUS
 62
     0
 10
-8066.00927644
 20
-16551.29065068
 30
0.0
 11
-7946.61520904
 21
-16431.89658328
 31
0.0
  0
LINE
  8
0
  6
CONTINUOUS
 62
     0
 10
-9377.01111332
 20
-17508.73909697
 30
0.0
 11
-9328.01490167
 21
-17459.74288531
 31
0.0
  0
LINE
  8
0
  6
CONTINUOUS
 62
     0
 10
-8803.03633347
 20
-16934.76431711
 30
0.0
 11
-8521.58883009
 21
-16653.31681373
 31
0.0
  0
LINE
  8
0
  6
CONTINUOUS
 62
     0
 10
-9672.22029804
 20
-17450.39489109
 30
0.0
 11
-9322.38222491
 21
-17100.55681796
 31
0.0
  0
LINE
  8
0
  6
CONTINUOUS
 62
     0
 10
-7396.28304867
 20
-17295.77798528
 30
0.0
 11
-7213.68906142
 21
-17113.18399803
 31
0.0
  0
LINE
  8
0
  6
CONTINUOUS
 62
     0
 10
-6966.30498576
 20
-17219.35331297
 30
0.0
 11
-6799.20193165
 21
-17052.25025885
 31
0.0
  0
LINE
  8
0
  6
CONTINUOUS
 62
     0
 10
-6536.32692286
 20
-17142.92864066
 30
0.0
 11
-6386.4631601
 21
-16993.0648779
 31
0.0
  0
LINE
  8
0
  6
CONTINUOUS
 62
     0
 10
-6136.56342105
 20
-17096.71852944
 30
0.0
 11
-6038.34446638
 21
-16998.49957477
 31
0.0
  0
LINE
  8
0
  6
CONTINUOUS
 62
     0
 10
-5751.4947189
 20
-17065.20321788
 30
0.0
 11
-5690.22577265
 21
-17003.93427164
 31
0.0
  0
LINE
  8
0
  6
CONTINUOUS
 62
     0
 10
-5371.60786948
 20
-17038.86975906
 30
0.0
 11
-5333.38458111
 21
-17000.64647069
 31
0.0
  0
LINE
  8
0
  6
CONTINUOUS
 62
     0
 10
-6844.01345049
 20
-17197.61710985
 30
0.0
 11
-6965.00552128
 21
-17076.62503906
 31
0.0
  0
LINE
  8
0
  6
CONTINUOUS
 62
     0
 10
-7144.20970033
 20
-17250.97425061
 30
0.0
 11
-7273.24468296
 21
-17121.93926798
 31
0.0
  0
LINE
  8
0
  6
CONTINUOUS
 62
     0
 10
-7919.90898323
 20
-16475.27496771
 30
0.0
 11
-7960.56674342
 21
-16434.61720752
 31
0.0
  0
LINE
  8
0
  6
CONTINUOUS
 62
     0
 10
-7444.40595017
 20
-17304.33139136
 30
0.0
 11
-7581.48384464
 21
-17167.25349689
 31
0.0
  0
LINE
  8
0
  6
CONTINUOUS
 62
     0
 10
-8152.46431275
 20
-16596.27302878
 30
0.0
 11
-8248.1404097
 21
-16500.59693183
 31
0.0
  0
LINE
  8
0
  6
CONTINUOUS
 62
     0
 10
-7754.55573358
 20
-17347.73499855
 30
0.0
 11
-7877.67486163
 21
-17224.61587049
 31
0.0
  0
LINE
  8
0
  6
CONTINUOUS
 62
     0
 10
-8385.01964226
 20
-16717.27108986
 30
0.0
 11
-8474.99589299
 21
-16627.29483913
 31
0.0
  0
LINE
  8
0
  6
CONTINUOUS
 62
     0
 10
-8075.36345422
 20
-17380.4806685
 30
0.0
 11
-8173.11206791
 21
-17282.7320548
 31
0.0
  0
LINE
  8
0
  6
CONTINUOUS
 62
     0
 10
-8617.57497178
 20
-16838.26915093
 30
0.0
 11
-8701.85137628
 21
-16753.99274643
 31
0.0
  0
LINE
  8
0
  6
CONTINUOUS
 62
     0
 10
-8396.17117486
 20
-17413.22633844
 30
0.0
 11
-8468.54927419
 21
-17340.84823912
 31
0.0
  0
LINE
  8
0
  6
CONTINUOUS
 62
     0
 10
-8850.1303013
 20
-16959.26721201
 30
0.0
 11
-8928.70685957
 21
-16880.69065373
 31
0.0
  0
LINE
  8
0
  6
CONTINUOUS
 62
     0
 10
-8716.97889551
 20
-17445.97200839
 30
0.0
 11
-8763.98648047
 21
-17398.96442343
 31
0.0
  0
LINE
  8
0
  6
CONTINUOUS
 62
     0
 10
-9082.68563082
 20
-17080.26527308
 30
0.0
 11
-9155.56234287
 21
-17007.38856104
 31
0.0
  0
LINE
  8
0
  6
CONTINUOUS
 62
     0
 10
-9036.88722238
 20
-17479.61707211
 30
0.0
 11
-9078.96933632
 21
-17437.53495818
 31
0.0
  0
LINE
  8
0
  6
CONTINUOUS
 62
     0
 10
-9315.24096034
 20
-17201.26333416
 30
0.0
 11
-9382.41782616
 21
-17134.08646834
 31
0.0
  0
LINE
  8
0
  6
CONTINUOUS
 62
     0
 10
-9362.06914299
 20
-17507.9885421
 30
0.0
 11
-9404.77154322
 21
-17465.28614187
 31
0.0
  0
LINE
  8
0
  6
CONTINUOUS
 62
     0
 10
-9527.81696891
 20
-17342.24071618
 30
0.0
 11
-9588.88238673
 21
-17281.17529836
 31
0.0
  0
LINE
  8
0
  6
CONTINUOUS
 62
     0
 10
-6543.81720065
 20
-17144.2599691
 30
0.0
 11
-6656.76635961
 21
-17031.31081014
 31
0.0
  0
LINE
  8
0
  6
CONTINUOUS
 62
     0
 10
-6230.14612774
 20
-17104.37765142
 30
0.0
 11
-6340.74516934
 21
-16993.77860981
 31
0.0
  0
LINE
  8
0
  6
CONTINUOUS
 62
     0
 10
-5903.33967148
 20
-17077.63071709
 30
0.0
 11
-5981.5847019
 21
-16999.38568666
 31
0.0
  0
LINE
  8
0
  6
CONTINUOUS
 62
     0
 10
-5576.53321521
 20
-17050.88378276
 30
0.0
 11
-5622.42423446
 21
-17004.99276351
 31
0.0
  0
LINE
  8
0
  6
CONTINUOUS
 62
     0
 10
-5241.599258
 20
-17032.26434937
 30
0.0
 11
-5278.1835702
 21
-16995.68003718
 31
0.0
  0
ENDBLK
  8
0
  0
BLOCK
  8
0
  2
*X2
 70
    65
 10
0.0
 20
0.0
 30
0.0
  3
*X
  0
LINE
  8
0
  6
CONTINUOUS
 62
     0
 10
-2113.46435545
 20
-13073.61946384
 30
0.0
 11
-2106.91776138
 21
-13067.07286977
 31
0.0
  0
LINE
  8
0
  6
CONTINUOUS
 62
     0
 10
-6238.45041553
 20
-16845.05213333
 30
0.0
 11
-6205.92722558
 21
-16812.52894338
 31
0.0
  0
LINE
  8
0
  6
CONTINUOUS
 62
     0
 10
-2554.79930678
 20
-13161.40102458
 30
0.0
 11
-2532.62389562
 21
-13139.22561342
 31
0.0
  0
LINE
  8
0
  6
CONTINUOUS
 62
     0
 10
-6631.98400674
 20
-16885.03233394
 30
0.0
 11
-6567.64247022
 21
-16820.69079742
 31
0.0
  0
LINE
  8
0
  6
CONTINUOUS
 62
     0
 10
-3123.66397926
 20
-13376.71230646
 30
0.0
 11
-3078.77000215
 21
-13331.81832935
 31
0.0
  0
LINE
  8
0
  6
CONTINUOUS
 62
     0
 10
-7023.40671887
 20
-16922.90165548
 30
0.0
 11
-6931.33372368
 21
-16830.82866029
 31
0.0
  0
LINE
  8
0
  6
CONTINUOUS
 62
     0
 10
-3711.25320132
 20
-13610.74813793
 30
0.0
 11
-3688.36585641
 21
-13587.86079302
 31
0.0
  0
LINE
  8
0
  6
CONTINUOUS
 62
     0
 10
-7414.829431
 20
-16960.77097702
 30
0.0
 11
-7295.02497714
 21
-16840.96652316
 31
0.0
  0
LINE
  8
0
  6
CONTINUOUS
 62
     0
 10
-4129.9410114
 20
-13675.88255741
 30
0.0
 11
-4099.88643075
 21
-13645.82797677
 31
0.0
  0
LINE
  8
0
  6
CONTINUOUS
 62
     0
 10
-7830.54254986
 20
-17022.93070529
 30
0.0
 11
-7671.87103191
 21
-16864.25918734
 31
0.0
  0
LINE
  8
0
  6
CONTINUOUS
 62
     0
 10
-4508.73611448
 20
-13701.12426991
 30
0.0
 11
-4461.46005652
 21
-13653.84821195
 31
0.0
  0
LINE
  8
0
  6
CONTINUOUS
 62
     0
 10
-8267.89352723
 20
-17106.72829206
 30
0.0
 11
-8110.62912488
 21
-16949.46388971
 31
0.0
  0
LINE
  8
0
  6
CONTINUOUS
 62
     0
 10
-4891.31901141
 20
-13730.15377624
 30
0.0
 11
-4839.41119925
 21
-13678.24596408
 31
0.0
  0
LINE
  8
0
  6
CONTINUOUS
 62
     0
 10
-7727.56192573
 20
-16566.39669056
 30
0.0
 11
-7562.37588404
 21
-16401.21064887
 31
0.0
  0
LINE
  8
0
  6
CONTINUOUS
 62
     0
 10
-8705.2445046
 20
-17190.52587883
 30
0.0
 11
-8337.76620937
 21
-16823.04758361
 31
0.0
  0
LINE
  8
0
  6
CONTINUOUS
 62
     0
 10
-5273.90190834
 20
-13759.18328258
 30
0.0
 11
-5217.36234198
 21
-13702.64371622
 31
0.0
  0
LINE
  8
0
  6
CONTINUOUS
 62
     0
 10
-5735.84875093
 20
-13867.57673458
 30
0.0
 11
-5676.38434974
 21
-13808.11233338
 31
0.0
  0
LINE
  8
0
  6
CONTINUOUS
 62
     0
 10
-6191.58942197
 20
-13969.76401502
 30
0.0
 11
-6147.92272644
 21
-13926.09731949
 31
0.0
  0
LINE
  8
0
  6
CONTINUOUS
 62
     0
 10
-6647.44690325
 20
-14072.06810571
 30
0.0
 11
-6610.80106032
 21
-14035.42226278
 31
0.0
  0
LINE
  8
0
  6
CONTINUOUS
 62
     0
 10
-7074.9014014
 20
-14145.96921326
 30
0.0
 11
-7041.02377291
 21
-14112.09158478
 31
0.0
  0
LINE
  8
0
  6
CONTINUOUS
 62
     0
 10
-7476.47379975
 20
-14193.98822102
 30
0.0
 11
-7443.29094916
 21
-14160.80537044
 31
0.0
  0
LINE
  8
0
  6
CONTINUOUS
 62
     0
 10
-7864.2728123
 20
-14228.23384298
 30
0.0
 11
-7821.91569293
 21
-14185.87672361
 31
0.0
  0
LINE
  8
0
  6
CONTINUOUS
 62
     0
 10
-8209.46365647
 20
-14219.87129656
 30
0.0
 11
-8178.21455262
 21
-14188.62219271
 31
0.0
  0
LINE
  8
0
  6
CONTINUOUS
 62
     0
 10
-8547.24517078
 20
-14204.09942027
 30
0.0
 11
-8512.86803527
 21
-14169.72228477
 31
0.0
  0
LINE
  8
0
  6
CONTINUOUS
 62
     0
 10
-8879.05306887
 20
-14182.35392777
 30
0.0
 11
-8837.97151047
 21
-14141.27236937
 31
0.0
  0
LINE
  8
0
  6
CONTINUOUS
 62
     0
 10
-9203.50208241
 20
-14153.24955071
 30
0.0
 11
-9156.19654072
 21
-14105.94400903
 31
0.0
  0
LINE
  8
0
  6
CONTINUOUS
 62
     0
 10
-9518.66378
 20
-14114.85785772
 30
0.0
 11
-9472.32077054
 21
-14068.51484825
 31
0.0
  0
LINE
  8
0
  6
CONTINUOUS
 62
     0
 10
-9832.68039546
 20
-14075.32108258
 30
0.0
 11
-9787.5011086
 21
-14030.14179572
 31
0.0
  0
LINE
  8
0
  6
CONTINUOUS
 62
     0
 10
-10146.69701091
 20
-14035.78430744
 30
0.0
 11
-10102.68144666
 21
-13991.76874318
 31
0.0
  0
LINE
  8
0
  6
CONTINUOUS
 62
     0
 10
-10460.71362636
 20
-13996.24753229
 30
0.0
 11
-10417.86178471
 21
-13953.39569065
 31
0.0
  0
LINE
  8
0
  6
CONTINUOUS
 62
     0
 10
4653.25466106
 20
-13377.9682592
 30
0.0
 11
4739.18386799
 21
-13292.03905227
 31
0.0
  0
LINE
  8
0
  6
CONTINUOUS
 62
     0
 10
6600.99924069
 20
-11430.22367957
 30
0.0
 11
6659.53445669
 21
-11371.68846357
 31
0.0
  0
LINE
  8
0
  6
CONTINUOUS
 62
     0
 10
5323.03485364
 20
-13061.74145721
 30
0.0
 11
5422.99160716
 21
-12961.78470369
 31
0.0
  0
LINE
  8
0
  6
CONTINUOUS
 62
     0
 10
7019.23178941
 20
-11365.54452144
 30
0.0
 11
7077.15049323
 21
-11307.62581762
 31
0.0
  0
LINE
  8
0
  6
CONTINUOUS
 62
     0
 10
6634.32660854
 20
-12104.00309291
 30
0.0
 11
6793.1844398
 21
-11945.14526164
 31
0.0
  0
LINE
  8
0
  6
CONTINUOUS
 62
     0
 10
7432.95564101
 20
-11305.37406044
 30
0.0
 11
7483.07525243
 21
-11255.25444901
 31
0.0
  0
LINE
  8
0
  6
CONTINUOUS
 62
     0
 10
-2421.46780832
 20
-13134.88137778
 30
0.0
 11
-2433.8625836
 21
-13122.4866025
 31
0.0
  0
LINE
  8
0
  6
CONTINUOUS
 62
     0
 10
-2716.36593543
 20
-13193.53664126
 30
0.0
 11
-2736.17686148
 21
-13173.72571521
 31
0.0
  0
LINE
  8
0
  6
CONTINUOUS
 62
     0
 10
-2965.18904069
 20
-13298.2669266
 30
0.0
 11
-2980.86193306
 21
-13282.59403423
 31
0.0
  0
LINE
  8
0
  6
CONTINUOUS
 62
     0
 10
-3201.67931821
 20
-13415.33003968
 30
0.0
 11
-3216.13124297
 21
-13400.87811491
 31
0.0
  0
LINE
  8
0
  6
CONTINUOUS
 62
     0
 10
-3438.16959572
 20
-13532.39315276
 30
0.0
 11
-3451.40055288
 21
-13519.1621956
 31
0.0
  0
LINE
  8
0
  6
CONTINUOUS
 62
     0
 10
-3712.97889707
 20
-13611.137242
 30
0.0
 11
-3727.98390963
 21
-13596.13222944
 31
0.0
  0
LINE
  8
0
  6
CONTINUOUS
 62
     0
 10
-4009.37610828
 20
-13668.29342139
 30
0.0
 11
-4035.25351949
 21
-13642.41601017
 31
0.0
  0
LINE
  8
0
  6
CONTINUOUS
 62
     0
 10
-4341.99247034
 20
-13689.23044992
 30
0.0
 11
-4381.56082763
 21
-13649.66209263
 31
0.0
  0
LINE
  8
0
  6
CONTINUOUS
 62
     0
 10
-4671.31586508
 20
-13713.46044577
 30
0.0
 11
-4714.58801548
 21
-13670.18829537
 31
0.0
  0
LINE
  8
0
  6
CONTINUOUS
 62
     0
 10
-4999.9344376
 20
-13738.39526385
 30
0.0
 11
-5046.70253026
 21
-13691.62717118
 31
0.0
  0
LINE
  8
0
  6
CONTINUOUS
 62
     0
 10
-5322.58154694
 20
-13769.3015451
 30
0.0
 11
-5364.20302502
 21
-13727.68006702
 31
0.0
  0
LINE
  8
0
  6
CONTINUOUS
 62
     0
 10
-5607.51434426
 20
-13837.92213837
 30
0.0
 11
-5645.32616579
 21
-13800.11031684
 31
0.0
  0
LINE
  8
0
  6
CONTINUOUS
 62
     0
 10
-5895.59454795
 20
-13903.39532527
 30
0.0
 11
-5927.6293188
 21
-13871.36055442
 31
0.0
  0
LINE
  8
0
  6
CONTINUOUS
 62
     0
 10
-6184.39287585
 20
-13968.15038797
 30
0.0
 11
-6210.88534565
 21
-13941.65791817
 31
0.0
  0
LINE
  8
0
  6
CONTINUOUS
 62
     0
 10
-6473.165906
 20
-14032.93074841
 30
0.0
 11
-6495.74963153
 21
-14010.34702288
 31
0.0
  0
LINE
  8
0
  6
CONTINUOUS
 62
     0
 10
-6761.88351711
 20
-14097.76652789
 30
0.0
 11
-6786.03572141
 21
-14073.61432359
 31
0.0
  0
LINE
  8
0
  6
CONTINUOUS
 62
     0
 10
-7068.05312217
 20
-14145.15031342
 30
0.0
 11
-7094.62129358
 21
-14118.58214202
 31
0.0
  0
LINE
  8
0
  6
CONTINUOUS
 62
     0
 10
-7383.84493019
 20
-14182.911896
 30
0.0
 11
-7409.98477031
 21
-14156.77205588
 31
0.0
  0
LINE
  8
0
  6
CONTINUOUS
 62
     0
 10
-7702.79036795
 20
-14217.51984884
 30
0.0
 11
-7735.22764801
 21
-14185.08256878
 31
0.0
  0
LINE
  8
0
  6
CONTINUOUS
 62
     0
 10
-8049.47436255
 20
-14224.38924482
 30
0.0
 11
-8085.57151559
 21
-14188.29209178
 31
0.0
  0
LINE
  8
0
  6
CONTINUOUS
 62
     0
 10
-8417.27235544
 20
-14210.14464253
 30
0.0
 11
-8452.88189267
 21
-14174.5351053
 31
0.0
  0
LINE
  8
0
  6
CONTINUOUS
 62
     0
 10
-6145.98457352
 20
-16834.98581505
 30
0.0
 11
-6169.0955015
 21
-16811.87488706
 31
0.0
  0
LINE
  8
0
  6
CONTINUOUS
 62
     0
 10
-8790.68993334
 20
-14190.28045522
 30
0.0
 11
-8839.9247585
 21
-14141.04563006
 31
0.0
  0
LINE
  8
0
  6
CONTINUOUS
 62
     0
 10
-6465.58973949
 20
-16868.93403966
 30
0.0
 11
-6515.29223996
 21
-16819.23153919
 31
0.0
  0
LINE
  8
0
  6
CONTINUOUS
 62
     0
 10
-9179.08381168
 20
-14155.43996748
 30
0.0
 11
-9237.40199264
 21
-14097.12178652
 31
0.0
  0
LINE
  8
0
  6
CONTINUOUS
 62
     0
 10
-6787.95497382
 20
-16900.12219593
 30
0.0
 11
-6859.25762461
 21
-16828.81954514
 31
0.0
  0
LINE
  8
0
  6
CONTINUOUS
 62
     0
 10
-9581.07762979
 20
-14106.99953996
 30
0.0
 11
-9639.97402331
 21
-14048.10314644
 31
0.0
  0
LINE
  8
0
  6
CONTINUOUS
 62
     0
 10
-7110.32020815
 20
-16931.31035219
 30
0.0
 11
-7203.22300926
 21
-16838.40755108
 31
0.0
  0
LINE
  8
0
  6
CONTINUOUS
 62
     0
 10
-9985.55775106
 20
-14056.07280928
 30
0.0
 11
-10042.53957341
 21
-13999.09098694
 31
0.0
  0
LINE
  8
0
  6
CONTINUOUS
 62
     0
 10
-7568.38230356
 20
-16473.24825678
 30
0.0
 11
-7632.43694207
 21
-16409.19361827
 31
0.0
  0
LINE
  8
0
  6
CONTINUOUS
 62
     0
 10
-7432.68544248
 20
-16962.49850846
 30
0.0
 11
-7547.18839391
 21
-16847.99555703
 31
0.0
  0
LINE
  8
0
  6
CONTINUOUS
 62
     0
 10
-10390.03787233
 20
-14005.14607861
 30
0.0
 11
-10445.10512351
 21
-13950.07882743
 31
0.0
  0
LINE
  8
0
  6
CONTINUOUS
 62
     0
 10
-7791.35594
 20
-16603.82801093
 30
0.0
 11
-7855.25260502
 21
-16539.93134592
 31
0.0
  0
LINE
  8
0
  6
CONTINUOUS
 62
     0
 10
-7742.64754767
 20
-17006.08979386
 30
0.0
 11
-7849.9048472
 21
-16898.83249433
 31
0.0
  0
LINE
  8
0
  6
CONTINUOUS
 62
     0
 10
-8014.17160295
 20
-16734.56573858
 30
0.0
 11
-8078.06826796
 21
-16670.66907357
 31
0.0
  0
LINE
  8
0
  6
CONTINUOUS
 62
     0
 10
-8039.35165772
 20
-17062.9390744
 30
0.0
 11
-8145.96482092
 21
-16956.3259112
 31
0.0
  0
LINE
  8
0
  6
CONTINUOUS
 62
     0
 10
-8236.9872659
 20
-16865.30346623
 30
0.0
 11
-8300.88393091
 21
-16801.40680121
 31
0.0
  0
LINE
  8
0
  6
CONTINUOUS
 62
     0
 10
-8336.05576777
 20
-17119.78835494
 30
0.0
 11
-8523.69959386
 21
-16932.14452886
 31
0.0
  0
LINE
  8
0
  6
CONTINUOUS
 62
     0
 10
-8632.75987782
 20
-17176.63763549
 30
0.0
 11
-8746.5152568
 21
-17062.88225651
 31
0.0
  0
LINE
  8
0
  6
CONTINUOUS
 62
     0
 10
-2126.56968122
 20
-13076.22611429
 30
0.0
 11
-2131.54830572
 21
-13071.24748979
 31
0.0
  0
LINE
  8
0
  6
CONTINUOUS
 62
     0
 10
4575.73381443
 20
-13414.56857926
 30
0.0
 11
4543.80020867
 21
-13382.6349735
 31
0.0
  0
LINE
  8
0
  6
CONTINUOUS
 62
     0
 10
4815.897484
 20
-13301.17885824
 30
0.0
 11
4785.35086444
 21
-13270.63223868
 31
0.0
  0
LINE
  8
0
  6
CONTINUOUS
 62
     0
 10
5056.06115357
 20
-13187.78913721
 30
0.0
 11
5026.90152021
 21
-13158.62950385
 31
0.0
  0
LINE
  8
0
  6
CONTINUOUS
 62
     0
 10
5296.22482314
 20
-13074.39941619
 30
0.0
 11
5268.45217598
 21
-13046.62676903
 31
0.0
  0
LINE
  8
0
  6
CONTINUOUS
 62
     0
 10
5515.1238562
 20
-12939.74505866
 30
0.0
 11
5492.41614263
 21
-12917.03734509
 31
0.0
  0
LINE
  8
0
  6
CONTINUOUS
 62
     0
 10
5727.87421362
 20
-12798.94202549
 30
0.0
 11
5707.40145145
 21
-12778.46926332
 31
0.0
  0
LINE
  8
0
  6
CONTINUOUS
 62
     0
 10
5940.62457104
 20
-12658.13899231
 30
0.0
 11
5922.38676027
 21
-12639.90118155
 31
0.0
  0
LINE
  8
0
  6
CONTINUOUS
 62
     0
 10
6150.58340095
 20
-12514.54443163
 30
0.0
 11
6135.86554252
 21
-12499.8265732
 31
0.0
  0
LINE
  8
0
  6
CONTINUOUS
 62
     0
 10
6341.83019362
 20
-12352.23783371
 30
0.0
 11
6327.61247716
 21
-12338.02011725
 31
0.0
  0
LINE
  8
0
  6
CONTINUOUS
 62
     0
 10
6533.0769863
 20
-12189.93123579
 30
0.0
 11
6519.35941181
 21
-12176.2136613
 31
0.0
  0
LINE
  8
0
  6
CONTINUOUS
 62
     0
 10
6724.32377897
 20
-12027.62463787
 30
0.0
 11
6711.10634646
 21
-12014.40720536
 31
0.0
  0
LINE
  8
0
  6
CONTINUOUS
 62
     0
 10
6915.57057164
 20
-11865.31803995
 30
0.0
 11
6902.8532811
 21
-11852.60074941
 31
0.0
  0
LINE
  8
0
  6
CONTINUOUS
 62
     0
 10
6496.61855772
 20
-11446.36602602
 30
0.0
 11
6453.5406204
 21
-11403.2880887
 31
0.0
  0
LINE
  8
0
  6
CONTINUOUS
 62
     0
 10
7106.81736432
 20
-11703.01144203
 30
0.0
 11
7094.60021575
 21
-11690.79429346
 31
0.0
  0
LINE
  8
0
  6
CONTINUOUS
 62
     0
 10
6802.8184977
 20
-11399.01257542
 30
0.0
 11
6760.07186425
 21
-11356.26594197
 31
0.0
  0
LINE
  8
0
  6
CONTINUOUS
 62
     0
 10
7303.18375017
 20
-11545.82443729
 30
0.0
 11
7291.42144121
 21
-11534.06212833
 31
0.0
  0
LINE
  8
0
  6
CONTINUOUS
 62
     0
 10
7109.01843769
 20
-11351.65912481
 30
0.0
 11
7066.60310811
 21
-11309.24379523
 31
0.0
  0
LINE
  8
0
  6
CONTINUOUS
 62
     0
 10
7499.35108034
 20
-11388.43837687
 30
0.0
 11
7489.95511853
 21
-11379.04241506
 31
0.0
  0
LINE
  8
0
  6
CONTINUOUS
 62
     0
 10
7418.21536914
 20
-11307.30266566
 30
0.0
 11
7379.0920119
 21
-11268.17930842
 31
0.0
  0
ENDBLK
  8
0
  0
BLOCK
  8
0
  2
*X3
 70
    65
 10
0.0
 20
0.0
 30
0.0
  3
*X
  0
LINE
  8
0
  6
CONTINUOUS
 62
     0
 10
-4669.82140356
 20
-13862.20955899
 30
0.0
 11
-4586.61325413
 21
-13779.00140956
 31
0.0
  0
LINE
  8
0
  6
CONTINUOUS
 62
     0
 10
-4380.76018441
 20
-13926.70173043
 30
0.0
 11
-4229.15896026
 21
-13775.10050627
 31
0.0
  0
LINE
  8
0
  6
CONTINUOUS
 62
     0
 10
-4152.90646874
 20
-13878.31645151
 30
0.0
 11
-4263.49563337
 21
-13767.72728689
 31
0.0
  0
LINE
  8
0
  6
CONTINUOUS
 62
     0
 10
-4459.80668425
 20
-13924.9696266
 30
0.0
 11
-4601.2963848
 21
-13783.47992605
 31
0.0
  0
ENDBLK
  8
0
  0
BLOCK
  8
0
  2
*X4
 70
    65
 10
0.0
 20
0.0
 30
0.0
  3
*X
  0
LINE
  8
0
  6
CONTINUOUS
 62
     0
 10
-10640.49823956
 20
-14250.0
 30
0.0
 11
-1234.19970709
 21
-14250.0
 31
0.0
  0
LINE
  8
0
  6
CONTINUOUS
 62
     0
 10
2840.17069622
 20
-14250.0
 30
0.0
 11
3628.64100457
 21
-14250.0
 31
0.0
  0
LINE
  8
0
  6
CONTINUOUS
 62
     0
 10
-1129.20672166
 20
-14250.0
 30
0.0
 11
2656.06240291
 21
-14250.0
 31
0.0
  0
LINE
  8
0
  6
CONTINUOUS
 62
     0
 10
-5660.07704465
 20
-13500.0
 30
0.0
 11
-4790.00898085
 21
-13500.0
 31
0.0
  0
LINE
  8
0
  6
CONTINUOUS
 62
     0
 10
3141.6740821
 20
-13500.0
 30
0.0
 11
5098.05915383
 21
-13500.0
 31
0.0
  0
LINE
  8
0
  6
CONTINUOUS
 62
     0
 10
-3663.00932258
 20
-13500.0
 30
0.0
 11
-1135.17935304
 21
-13500.0
 31
0.0
  0
LINE
  8
0
  6
CONTINUOUS
 62
     0
 10
-1032.23484447
 20
-13500.0
 30
0.0
 11
2984.041251
 21
-13500.0
 31
0.0
  0
LINE
  8
0
  6
CONTINUOUS
 62
     0
 10
-1127.5997549
 20
-12750.0
 30
0.0
 11
-1036.15899899
 21
-12750.0
 31
0.0
  0
LINE
  8
0
  6
CONTINUOUS
 62
     0
 10
5801.82456242
 20
-12750.0
 30
0.0
 11
6219.92771452
 21
-12750.0
 31
0.0
  0
LINE
  8
0
  6
CONTINUOUS
 62
     0
 10
-935.26296729
 20
-12750.0
 30
0.0
 11
3106.89782309
 21
-12750.0
 31
0.0
  0
LINE
  8
0
  6
CONTINUOUS
 62
     0
 10
3260.94381254
 20
-12750.0
 30
0.0
 11
5751.57088274
 21
-12750.0
 31
0.0
  0
LINE
  8
0
  6
CONTINUOUS
 62
     0
 10
902.03325192
 20
-12000.0
 30
0.0
 11
3134.74246791
 21
-12000.0
 31
0.0
  0
LINE
  8
0
  6
CONTINUOUS
 62
     0
 10
6756.87404778
 20
-12000.0
 30
0.0
 11
6964.21627708
 21
-12000.0
 31
0.0
  0
LINE
  8
0
  6
CONTINUOUS
 62
     0
 10
3274.96195672
 20
-12000.0
 30
0.0
 11
6728.17944436
 21
-12000.0
 31
0.0
  0
LINE
  8
0
  6
CONTINUOUS
 62
     0
 10
1222.73430835
 20
-11250.0
 30
0.0
 11
3142.54168102
 21
-11250.0
 31
0.0
  0
LINE
  8
0
  6
CONTINUOUS
 62
     0
 10
7549.03002045
 20
-11250.0
 30
0.0
 11
7828.55610913
 21
-11250.0
 31
0.0
  0
LINE
  8
0
  6
CONTINUOUS
 62
     0
 10
3255.33440998
 20
-11250.0
 30
0.0
 11
7525.34841129
 21
-11250.0
 31
0.0
  0
LINE
  8
0
  6
CONTINUOUS
 62
     0
 10
-10640.49823956
 20
-15000.0
 30
0.0
 11
-1333.22006114
 21
-15000.0
 31
0.0
  0
LINE
  8
0
  6
CONTINUOUS
 62
     0
 10
-1226.17859884
 20
-15000.0
 30
0.0
 11
2094.91568109
 21
-15000.0
 31
0.0
  0
LINE
  8
0
  6
CONTINUOUS
 62
     0
 10
-8545.74257676
 20
-15750.0
 30
0.0
 11
-1432.2404152
 21
-15750.0
 31
0.0
  0
LINE
  8
0
  6
CONTINUOUS
 62
     0
 10
-1323.15047602
 20
-15750.0
 30
0.0
 11
458.19211085
 21
-15750.0
 31
0.0
  0
LINE
  8
0
  6
CONTINUOUS
 62
     0
 10
-8914.47912476
 20
-16500.0
 30
0.0
 11
-8247.0715897
 21
-16500.0
 31
0.0
  0
LINE
  8
0
  6
CONTINUOUS
 62
     0
 10
-7614.40237423
 20
-16500.0
 30
0.0
 11
-3025.88184489
 21
-16500.0
 31
0.0
  0
LINE
  8
0
  6
CONTINUOUS
 62
     0
 10
-7967.42989373
 20
-16500.0
 30
0.0
 11
-7787.19780956
 21
-16500.0
 31
0.0
  0
LINE
  8
0
  6
CONTINUOUS
 62
     0
 10
-9734.53909994
 20
-17250.0
 30
0.0
 11
-9554.8941947
 21
-17250.0
 31
0.0
  0
LINE
  8
0
  6
CONTINUOUS
 62
     0
 10
-7138.72840252
 20
-17250.0
 30
0.0
 11
-6619.35332375
 21
-17250.0
 31
0.0
  0
LINE
  8
0
  6
CONTINUOUS
 62
     0
 10
-9395.05206922
 20
-17250.0
 30
0.0
 11
-8006.71664914
 21
-17250.0
 31
0.0
  0
LINE
  8
0
  6
CONTINUOUS
 62
     0
 10
-10640.49823956
 20
-13875.0
 30
0.0
 11
-10312.5
 21
-13875.0
 31
0.0
  0
LINE
  8
0
  6
CONTINUOUS
 62
     0
 10
-10125.0
 20
-13875.0
 30
0.0
 11
-9885.23756577
 21
-13875.0
 31
0.0
  0
LINE
  8
0
  6
CONTINUOUS
 62
     0
 10
3027.70186274
 20
-13875.0
 30
0.0
 11
3187.5
 21
-13875.0
 31
0.0
  0
LINE
  8
0
  6
CONTINUOUS
 62
     0
 10
3375.0
 20
-13875.0
 30
0.0
 11
3750.0
 21
-13875.0
 31
0.0
  0
LINE
  8
0
  6
CONTINUOUS
 62
     0
 10
3937.5
 20
-13875.0
 30
0.0
 11
4312.5
 21
-13875.0
 31
0.0
  0
LINE
  8
0
  6
CONTINUOUS
 62
     0
 10
-6501.39652957
 20
-13875.0
 30
0.0
 11
-6375.0
 21
-13875.0
 31
0.0
  0
LINE
  8
0
  6
CONTINUOUS
 62
     0
 10
-6187.5
 20
-13875.0
 30
0.0
 11
-5812.5
 21
-13875.0
 31
0.0
  0
LINE
  8
0
  6
CONTINUOUS
 62
     0
 10
-5625.0
 20
-13875.0
 30
0.0
 11
-5250.0
 21
-13875.0
 31
0.0
  0
LINE
  8
0
  6
CONTINUOUS
 62
     0
 10
-5062.5
 20
-13875.0
 30
0.0
 11
-4687.5
 21
-13875.0
 31
0.0
  0
LINE
  8
0
  6
CONTINUOUS
 62
     0
 10
-1080.72078306
 20
-13875.0
 30
0.0
 11
-750.0
 21
-13875.0
 31
0.0
  0
LINE
  8
0
  6
CONTINUOUS
 62
     0
 10
-562.5
 20
-13875.0
 30
0.0
 11
-187.5
 21
-13875.0
 31
0.0
  0
LINE
  8
0
  6
CONTINUOUS
 62
     0
 10
0.0
 20
-13875.0
 30
0.0
 11
375.0
 21
-13875.0
 31
0.0
  0
LINE
  8
0
  6
CONTINUOUS
 62
     0
 10
562.5
 20
-13875.0
 30
0.0
 11
937.5
 21
-13875.0
 31
0.0
  0
LINE
  8
0
  6
CONTINUOUS
 62
     0
 10
1125.0
 20
-13875.0
 30
0.0
 11
1500.0
 21
-13875.0
 31
0.0
  0
LINE
  8
0
  6
CONTINUOUS
 62
     0
 10
1687.5
 20
-13875.0
 30
0.0
 11
2062.5
 21
-13875.0
 31
0.0
  0
LINE
  8
0
  6
CONTINUOUS
 62
     0
 10
2250.0
 20
-13875.0
 30
0.0
 11
2625.0
 21
-13875.0
 31
0.0
  0
LINE
  8
0
  6
CONTINUOUS
 62
     0
 10
2812.5
 20
-13875.0
 30
0.0
 11
2840.65463303
 21
-13875.0
 31
0.0
  0
LINE
  8
0
  6
CONTINUOUS
 62
     0
 10
-4147.7026997
 20
-13875.0
 30
0.0
 11
-4125.0
 21
-13875.0
 31
0.0
  0
LINE
  8
0
  6
CONTINUOUS
 62
     0
 10
-3937.5
 20
-13875.0
 30
0.0
 11
-3562.5
 21
-13875.0
 31
0.0
  0
LINE
  8
0
  6
CONTINUOUS
 62
     0
 10
-3375.0
 20
-13875.0
 30
0.0
 11
-3000.0
 21
-13875.0
 31
0.0
  0
LINE
  8
0
  6
CONTINUOUS
 62
     0
 10
-2812.5
 20
-13875.0
 30
0.0
 11
-2437.5
 21
-13875.0
 31
0.0
  0
LINE
  8
0
  6
CONTINUOUS
 62
     0
 10
-2250.0
 20
-13875.0
 30
0.0
 11
-1875.0
 21
-13875.0
 31
0.0
  0
LINE
  8
0
  6
CONTINUOUS
 62
     0
 10
-1687.5
 20
-13875.0
 30
0.0
 11
-1312.5
 21
-13875.0
 31
0.0
  0
LINE
  8
0
  6
CONTINUOUS
 62
     0
 10
-2649.11537711
 20
-13125.0
 30
0.0
 11
-2437.5
 21
-13125.0
 31
0.0
  0
LINE
  8
0
  6
CONTINUOUS
 62
     0
 10
-2250.0
 20
-13125.0
 30
0.0
 11
-1875.0
 21
-13125.0
 31
0.0
  0
LINE
  8
0
  6
CONTINUOUS
 62
     0
 10
-1687.5
 20
-13125.0
 30
0.0
 11
-1312.5
 21
-13125.0
 31
0.0
  0
LINE
  8
0
  6
CONTINUOUS
 62
     0
 10
-1125.0
 20
-13125.0
 30
0.0
 11
-1085.66917602
 21
-13125.0
 31
0.0
  0
LINE
  8
0
  6
CONTINUOUS
 62
     0
 10
5189.05089432
 20
-13125.0
 30
0.0
 11
5437.5
 21
-13125.0
 31
0.0
  0
LINE
  8
0
  6
CONTINUOUS
 62
     0
 10
5625.0
 20
-13125.0
 30
0.0
 11
5695.18540542
 21
-13125.0
 31
0.0
  0
LINE
  8
0
  6
CONTINUOUS
 62
     0
 10
-983.74890588
 20
-13125.0
 30
0.0
 11
-750.0
 21
-13125.0
 31
0.0
  0
LINE
  8
0
  6
CONTINUOUS
 62
     0
 10
-562.5
 20
-13125.0
 30
0.0
 11
-187.5
 21
-13125.0
 31
0.0
  0
LINE
  8
0
  6
CONTINUOUS
 62
     0
 10
0.0
 20
-13125.0
 30
0.0
 11
375.0
 21
-13125.0
 31
0.0
  0
LINE
  8
0
  6
CONTINUOUS
 62
     0
 10
562.5
 20
-13125.0
 30
0.0
 11
937.5
 21
-13125.0
 31
0.0
  0
LINE
  8
0
  6
CONTINUOUS
 62
     0
 10
1125.0
 20
-13125.0
 30
0.0
 11
1500.0
 21
-13125.0
 31
0.0
  0
LINE
  8
0
  6
CONTINUOUS
 62
     0
 10
1687.5
 20
-13125.0
 30
0.0
 11
2062.5
 21
-13125.0
 31
0.0
  0
LINE
  8
0
  6
CONTINUOUS
 62
     0
 10
2250.0
 20
-13125.0
 30
0.0
 11
2625.0
 21
-13125.0
 31
0.0
  0
LINE
  8
0
  6
CONTINUOUS
 62
     0
 10
2812.5
 20
-13125.0
 30
0.0
 11
3049.62367224
 21
-13125.0
 31
0.0
  0
LINE
  8
0
  6
CONTINUOUS
 62
     0
 10
3375.0
 20
-13125.0
 30
0.0
 11
3750.0
 21
-13125.0
 31
0.0
  0
LINE
  8
0
  6
CONTINUOUS
 62
     0
 10
3937.5
 20
-13125.0
 30
0.0
 11
4312.5
 21
-13125.0
 31
0.0
  0
LINE
  8
0
  6
CONTINUOUS
 62
     0
 10
4500.0
 20
-13125.0
 30
0.0
 11
4875.0
 21
-13125.0
 31
0.0
  0
LINE
  8
0
  6
CONTINUOUS
 62
     0
 10
5062.5
 20
-13125.0
 30
0.0
 11
5099.42857699
 21
-13125.0
 31
0.0
  0
LINE
  8
0
  6
CONTINUOUS
 62
     0
 10
130.29089376
 20
-12375.0
 30
0.0
 11
375.0
 21
-12375.0
 31
0.0
  0
LINE
  8
0
  6
CONTINUOUS
 62
     0
 10
562.5
 20
-12375.0
 30
0.0
 11
937.5
 21
-12375.0
 31
0.0
  0
LINE
  8
0
  6
CONTINUOUS
 62
     0
 10
1125.0
 20
-12375.0
 30
0.0
 11
1500.0
 21
-12375.0
 31
0.0
  0
LINE
  8
0
  6
CONTINUOUS
 62
     0
 10
1687.5
 20
-12375.0
 30
0.0
 11
2062.5
 21
-12375.0
 31
0.0
  0
LINE
  8
0
  6
CONTINUOUS
 62
     0
 10
2250.0
 20
-12375.0
 30
0.0
 11
2625.0
 21
-12375.0
 31
0.0
  0
LINE
  8
0
  6
CONTINUOUS
 62
     0
 10
2812.5
 20
-12375.0
 30
0.0
 11
3131.09992891
 21
-12375.0
 31
0.0
  0
LINE
  8
0
  6
CONTINUOUS
 62
     0
 10
6315.00940289
 20
-12375.0
 30
0.0
 11
6562.5
 21
-12375.0
 31
0.0
  0
LINE
  8
0
  6
CONTINUOUS
 62
     0
 10
3375.0
 20
-12375.0
 30
0.0
 11
3750.0
 21
-12375.0
 31
0.0
  0
LINE
  8
0
  6
CONTINUOUS
 62
     0
 10
3937.5
 20
-12375.0
 30
0.0
 11
4312.5
 21
-12375.0
 31
0.0
  0
LINE
  8
0
  6
CONTINUOUS
 62
     0
 10
4500.0
 20
-12375.0
 30
0.0
 11
4875.0
 21
-12375.0
 31
0.0
  0
LINE
  8
0
  6
CONTINUOUS
 62
     0
 10
5062.5
 20
-12375.0
 30
0.0
 11
5437.5
 21
-12375.0
 31
0.0
  0
LINE
  8
0
  6
CONTINUOUS
 62
     0
 10
5625.0
 20
-12375.0
 30
0.0
 11
6000.0
 21
-12375.0
 31
0.0
  0
LINE
  8
0
  6
CONTINUOUS
 62
     0
 10
6187.5
 20
-12375.0
 30
0.0
 11
6283.78987986
 21
-12375.0
 31
0.0
  0
LINE
  8
0
  6
CONTINUOUS
 62
     0
 10
1176.808178
 20
-11625.0
 30
0.0
 11
1500.0
 21
-11625.0
 31
0.0
  0
LINE
  8
0
  6
CONTINUOUS
 62
     0
 10
1687.5
 20
-11625.0
 30
0.0
 11
2062.5
 21
-11625.0
 31
0.0
  0
LINE
  8
0
  6
CONTINUOUS
 62
     0
 10
2250.0
 20
-11625.0
 30
0.0
 11
2625.0
 21
-11625.0
 31
0.0
  0
LINE
  8
0
  6
CONTINUOUS
 62
     0
 10
2812.5
 20
-11625.0
 30
0.0
 11
3139.74440417
 21
-11625.0
 31
0.0
  0
LINE
  8
0
  6
CONTINUOUS
 62
     0
 10
7312.5
 20
-11625.0
 30
0.0
 11
7374.23540308
 21
-11625.0
 31
0.0
  0
LINE
  8
0
  6
CONTINUOUS
 62
     0
 10
3375.0
 20
-11625.0
 30
0.0
 11
3750.0
 21
-11625.0
 31
0.0
  0
LINE
  8
0
  6
CONTINUOUS
 62
     0
 10
3937.5
 20
-11625.0
 30
0.0
 11
4312.5
 21
-11625.0
 31
0.0
  0
LINE
  8
0
  6
CONTINUOUS
 62
     0
 10
4500.0
 20
-11625.0
 30
0.0
 11
4875.0
 21
-11625.0
 31
0.0
  0
LINE
  8
0
  6
CONTINUOUS
 62
     0
 10
5062.5
 20
-11625.0
 30
0.0
 11
5437.5
 21
-11625.0
 31
0.0
  0
LINE
  8
0
  6
CONTINUOUS
 62
     0
 10
5625.0
 20
-11625.0
 30
0.0
 11
6000.0
 21
-11625.0
 31
0.0
  0
LINE
  8
0
  6
CONTINUOUS
 62
     0
 10
6187.5
 20
-11625.0
 30
0.0
 11
6562.5
 21
-11625.0
 31
0.0
  0
LINE
  8
0
  6
CONTINUOUS
 62
     0
 10
6750.0
 20
-11625.0
 30
0.0
 11
7125.0
 21
-11625.0
 31
0.0
  0
LINE
  8
0
  6
CONTINUOUS
 62
     0
 10
-10640.49823956
 20
-14625.0
 30
0.0
 11
-10312.5
 21
-14625.0
 31
0.0
  0
LINE
  8
0
  6
CONTINUOUS
 62
     0
 10
-10125.0
 20
-14625.0
 30
0.0
 11
-9750.0
 21
-14625.0
 31
0.0
  0
LINE
  8
0
  6
CONTINUOUS
 62
     0
 10
-9562.5
 20
-14625.0
 30
0.0
 11
-9187.5
 21
-14625.0
 31
0.0
  0
LINE
  8
0
  6
CONTINUOUS
 62
     0
 10
-9000.0
 20
-14625.0
 30
0.0
 11
-8625.0
 21
-14625.0
 31
0.0
  0
LINE
  8
0
  6
CONTINUOUS
 62
     0
 10
-8437.5
 20
-14625.0
 30
0.0
 11
-8062.5
 21
-14625.0
 31
0.0
  0
LINE
  8
0
  6
CONTINUOUS
 62
     0
 10
-7875.0
 20
-14625.0
 30
0.0
 11
-7500.0
 21
-14625.0
 31
0.0
  0
LINE
  8
0
  6
CONTINUOUS
 62
     0
 10
-7312.5
 20
-14625.0
 30
0.0
 11
-6937.5
 21
-14625.0
 31
0.0
  0
LINE
  8
0
  6
CONTINUOUS
 62
     0
 10
-6750.0
 20
-14625.0
 30
0.0
 11
-6375.0
 21
-14625.0
 31
0.0
  0
LINE
  8
0
  6
CONTINUOUS
 62
     0
 10
-6187.5
 20
-14625.0
 30
0.0
 11
-5812.5
 21
-14625.0
 31
0.0
  0
LINE
  8
0
  6
CONTINUOUS
 62
     0
 10
-5625.0
 20
-14625.0
 30
0.0
 11
-5250.0
 21
-14625.0
 31
0.0
  0
LINE
  8
0
  6
CONTINUOUS
 62
     0
 10
-5062.5
 20
-14625.0
 30
0.0
 11
-4687.5
 21
-14625.0
 31
0.0
  0
LINE
  8
0
  6
CONTINUOUS
 62
     0
 10
-4500.0
 20
-14625.0
 30
0.0
 11
-4125.0
 21
-14625.0
 31
0.0
  0
LINE
  8
0
  6
CONTINUOUS
 62
     0
 10
-3937.5
 20
-14625.0
 30
0.0
 11
-3562.5
 21
-14625.0
 31
0.0
  0
LINE
  8
0
  6
CONTINUOUS
 62
     0
 10
-3375.0
 20
-14625.0
 30
0.0
 11
-3000.0
 21
-14625.0
 31
0.0
  0
LINE
  8
0
  6
CONTINUOUS
 62
     0
 10
-2812.5
 20
-14625.0
 30
0.0
 11
-2437.5
 21
-14625.0
 31
0.0
  0
LINE
  8
0
  6
CONTINUOUS
 62
     0
 10
-2250.0
 20
-14625.0
 30
0.0
 11
-1875.0
 21
-14625.0
 31
0.0
  0
LINE
  8
0
  6
CONTINUOUS
 62
     0
 10
-1687.5
 20
-14625.0
 30
0.0
 11
-1312.5
 21
-14625.0
 31
0.0
  0
LINE
  8
0
  6
CONTINUOUS
 62
     0
 10
2812.5
 20
-14625.0
 30
0.0
 11
2912.06725306
 21
-14625.0
 31
0.0
  0
LINE
  8
0
  6
CONTINUOUS
 62
     0
 10
-1125.0
 20
-14625.0
 30
0.0
 11
-750.0
 21
-14625.0
 31
0.0
  0
LINE
  8
0
  6
CONTINUOUS
 62
     0
 10
-562.5
 20
-14625.0
 30
0.0
 11
-187.5
 21
-14625.0
 31
0.0
  0
LINE
  8
0
  6
CONTINUOUS
 62
     0
 10
0.0
 20
-14625.0
 30
0.0
 11
375.0
 21
-14625.0
 31
0.0
  0
LINE
  8
0
  6
CONTINUOUS
 62
     0
 10
562.5
 20
-14625.0
 30
0.0
 11
937.5
 21
-14625.0
 31
0.0
  0
LINE
  8
0
  6
CONTINUOUS
 62
     0
 10
1125.0
 20
-14625.0
 30
0.0
 11
1500.0
 21
-14625.0
 31
0.0
  0
LINE
  8
0
  6
CONTINUOUS
 62
     0
 10
1687.5
 20
-14625.0
 30
0.0
 11
2062.5
 21
-14625.0
 31
0.0
  0
LINE
  8
0
  6
CONTINUOUS
 62
     0
 10
2250.0
 20
-14625.0
 30
0.0
 11
2594.2259056
 21
-14625.0
 31
0.0
  0
LINE
  8
0
  6
CONTINUOUS
 62
     0
 10
-9562.5
 20
-15375.0
 30
0.0
 11
-9187.5
 21
-15375.0
 31
0.0
  0
LINE
  8
0
  6
CONTINUOUS
 62
     0
 10
-9000.0
 20
-15375.0
 30
0.0
 11
-8625.0
 21
-15375.0
 31
0.0
  0
LINE
  8
0
  6
CONTINUOUS
 62
     0
 10
-8437.5
 20
-15375.0
 30
0.0
 11
-8062.5
 21
-15375.0
 31
0.0
  0
LINE
  8
0
  6
CONTINUOUS
 62
     0
 10
-7875.0
 20
-15375.0
 30
0.0
 11
-7500.0
 21
-15375.0
 31
0.0
  0
LINE
  8
0
  6
CONTINUOUS
 62
     0
 10
-7312.5
 20
-15375.0
 30
0.0
 11
-6937.5
 21
-15375.0
 31
0.0
  0
LINE
  8
0
  6
CONTINUOUS
 62
     0
 10
-6750.0
 20
-15375.0
 30
0.0
 11
-6375.0
 21
-15375.0
 31
0.0
  0
LINE
  8
0
  6
CONTINUOUS
 62
     0
 10
-6187.5
 20
-15375.0
 30
0.0
 11
-5812.5
 21
-15375.0
 31
0.0
  0
LINE
  8
0
  6
CONTINUOUS
 62
     0
 10
-5625.0
 20
-15375.0
 30
0.0
 11
-5250.0
 21
-15375.0
 31
0.0
  0
LINE
  8
0
  6
CONTINUOUS
 62
     0
 10
-5062.5
 20
-15375.0
 30
0.0
 11
-4687.5
 21
-15375.0
 31
0.0
  0
LINE
  8
0
  6
CONTINUOUS
 62
     0
 10
-4500.0
 20
-15375.0
 30
0.0
 11
-4125.0
 21
-15375.0
 31
0.0
  0
LINE
  8
0
  6
CONTINUOUS
 62
     0
 10
-3937.5
 20
-15375.0
 30
0.0
 11
-3562.5
 21
-15375.0
 31
0.0
  0
LINE
  8
0
  6
CONTINUOUS
 62
     0
 10
-3375.0
 20
-15375.0
 30
0.0
 11
-3000.0
 21
-15375.0
 31
0.0
  0
LINE
  8
0
  6
CONTINUOUS
 62
     0
 10
-2812.5
 20
-15375.0
 30
0.0
 11
-2437.5
 21
-15375.0
 31
0.0
  0
LINE
  8
0
  6
CONTINUOUS
 62
     0
 10
-2250.0
 20
-15375.0
 30
0.0
 11
-1875.0
 21
-15375.0
 31
0.0
  0
LINE
  8
0
  6
CONTINUOUS
 62
     0
 10
-1687.5
 20
-15375.0
 30
0.0
 11
-1382.73023817
 21
-15375.0
 31
0.0
  0
LINE
  8
0
  6
CONTINUOUS
 62
     0
 10
-1125.0
 20
-15375.0
 30
0.0
 11
-750.0
 21
-15375.0
 31
0.0
  0
LINE
  8
0
  6
CONTINUOUS
 62
     0
 10
-562.5
 20
-15375.0
 30
0.0
 11
-187.5
 21
-15375.0
 31
0.0
  0
LINE
  8
0
  6
CONTINUOUS
 62
     0
 10
0.0
 20
-15375.0
 30
0.0
 11
375.0
 21
-15375.0
 31
0.0
  0
LINE
  8
0
  6
CONTINUOUS
 62
     0
 10
562.5
 20
-15375.0
 30
0.0
 11
937.5
 21
-15375.0
 31
0.0
  0
LINE
  8
0
  6
CONTINUOUS
 62
     0
 10
1125.0
 20
-15375.0
 30
0.0
 11
1271.11038883
 21
-15375.0
 31
0.0
  0
LINE
  8
0
  6
CONTINUOUS
 62
     0
 10
-8437.5
 20
-16125.0
 30
0.0
 11
-8062.5
 21
-16125.0
 31
0.0
  0
LINE
  8
0
  6
CONTINUOUS
 62
     0
 10
-7875.0
 20
-16125.0
 30
0.0
 11
-7500.0
 21
-16125.0
 31
0.0
  0
LINE
  8
0
  6
CONTINUOUS
 62
     0
 10
-7312.5
 20
-16125.0
 30
0.0
 11
-6937.5
 21
-16125.0
 31
0.0
  0
LINE
  8
0
  6
CONTINUOUS
 62
     0
 10
-6750.0
 20
-16125.0
 30
0.0
 11
-6375.0
 21
-16125.0
 31
0.0
  0
LINE
  8
0
  6
CONTINUOUS
 62
     0
 10
-6187.5
 20
-16125.0
 30
0.0
 11
-5812.5
 21
-16125.0
 31
0.0
  0
LINE
  8
0
  6
CONTINUOUS
 62
     0
 10
-5625.0
 20
-16125.0
 30
0.0
 11
-5250.0
 21
-16125.0
 31
0.0
  0
LINE
  8
0
  6
CONTINUOUS
 62
     0
 10
-5062.5
 20
-16125.0
 30
0.0
 11
-4687.5
 21
-16125.0
 31
0.0
  0
LINE
  8
0
  6
CONTINUOUS
 62
     0
 10
-4500.0
 20
-16125.0
 30
0.0
 11
-4125.0
 21
-16125.0
 31
0.0
  0
LINE
  8
0
  6
CONTINUOUS
 62
     0
 10
-3937.5
 20
-16125.0
 30
0.0
 11
-3562.5
 21
-16125.0
 31
0.0
  0
LINE
  8
0
  6
CONTINUOUS
 62
     0
 10
-3375.0
 20
-16125.0
 30
0.0
 11
-3000.0
 21
-16125.0
 31
0.0
  0
LINE
  8
0
  6
CONTINUOUS
 62
     0
 10
-2812.5
 20
-16125.0
 30
0.0
 11
-2437.5
 21
-16125.0
 31
0.0
  0
LINE
  8
0
  6
CONTINUOUS
 62
     0
 10
-2250.0
 20
-16125.0
 30
0.0
 11
-1875.0
 21
-16125.0
 31
0.0
  0
LINE
  8
0
  6
CONTINUOUS
 62
     0
 10
-1687.5
 20
-16125.0
 30
0.0
 11
-1481.75059222
 21
-16125.0
 31
0.0
  0
LINE
  8
0
  6
CONTINUOUS
 62
     0
 10
-802.4846239
 20
-16125.0
 30
0.0
 11
-750.0
 21
-16125.0
 31
0.0
  0
LINE
  8
0
  6
CONTINUOUS
 62
     0
 10
-562.5
 20
-16125.0
 30
0.0
 11
-309.64948985
 21
-16125.0
 31
0.0
  0
LINE
  8
0
  6
CONTINUOUS
 62
     0
 10
-9299.24193743
 20
-16875.0
 30
0.0
 11
-9187.5
 21
-16875.0
 31
0.0
  0
LINE
  8
0
  6
CONTINUOUS
 62
     0
 10
-9000.0
 20
-16875.0
 30
0.0
 11
-8918.5176147
 21
-16875.0
 31
0.0
  0
LINE
  8
0
  6
CONTINUOUS
 62
     0
 10
-6528.28837129
 20
-16875.0
 30
0.0
 11
-6375.0
 21
-16875.0
 31
0.0
  0
LINE
  8
0
  6
CONTINUOUS
 62
     0
 10
-6187.5
 20
-16875.0
 30
0.0
 11
-5812.5
 21
-16875.0
 31
0.0
  0
LINE
  8
0
  6
CONTINUOUS
 62
     0
 10
-5625.0
 20
-16875.0
 30
0.0
 11
-5250.0
 21
-16875.0
 31
0.0
  0
LINE
  8
0
  6
CONTINUOUS
 62
     0
 10
-5062.5
 20
-16875.0
 30
0.0
 11
-4687.5
 21
-16875.0
 31
0.0
  0
LINE
  8
0
  6
CONTINUOUS
 62
     0
 10
-4500.0
 20
-16875.0
 30
0.0
 11
-4125.0
 21
-16875.0
 31
0.0
  0
LINE
  8
0
  6
CONTINUOUS
 62
     0
 10
-3937.5
 20
-16875.0
 30
0.0
 11
-3929.92844078
 21
-16875.0
 31
0.0
  0
LINE
  8
0
  6
CONTINUOUS
 62
     0
 10
-8688.17077003
 20
-16875.0
 30
0.0
 11
-8625.0
 21
-16875.0
 31
0.0
  0
LINE
  8
0
  6
CONTINUOUS
 62
     0
 10
-8437.5
 20
-16875.0
 30
0.0
 11
-8426.30845581
 21
-16875.0
 31
0.0
  0
LINE
  8
0
  6
CONTINUOUS
 62
     0
 10
-8253.51302047
 20
-16875.0
 30
0.0
 11
-8062.5
 21
-16875.0
 31
0.0
  0
LINE
  8
0
  6
CONTINUOUS
 62
     0
 10
-7875.0
 20
-16875.0
 30
0.0
 11
-7727.18040276
 21
-16875.0
 31
0.0
  0
ENDBLK
  8
0
  0
ENDSEC
  0
SECTION
  2
ENTITIES
  0
POLYLINE
  8
CTDYKE
  6
CONTINUOUS
 39
2.0
 66
     1
 10
0.0
 20
0.0
 30
0.0
  0
VERTEX
  8
CTDYKE
  6
CONTINUOUS
 39
2.0
 10
-833.38128479
 20
-11182.16847073
 30
0.0
  0
VERTEX
  8
CTDYKE
  6
CONTINUOUS
 39
2.0
 10
-1541.30787444
 20
-16657.41508519
 30
0.0
  0
SEQEND
  8
CTDYKE
  6
CONTINUOUS
 39
2.0
  0
POLYLINE
  8
CTDYKE
  6
CONTINUOUS
 39
2.0
 66
     1
 10
0.0
 20
0.0
 30
0.0
  0
VERTEX
  8
CTDYKE
  6
CONTINUOUS
 39
2.0
 10
3132.96587274
 20
-12535.98171049
 30
0.0
  0
VERTEX
  8
CTDYKE
  6
CONTINUOUS
 39
2.0
 10
3119.09510076
 20
-12703.65420639
 30
0.0
  0
VERTEX
  8
CTDYKE
  6
CONTINUOUS
 39
2.0
 10
3085.45700412
 20
-12893.53972525
 30
0.0
  0
VERTEX
  8
CTDYKE
  6
CONTINUOUS
 39
2.0
 10
3040.93599386
 20
-13228.88471705
 30
0.0
  0
VERTEX
  8
CTDYKE
  6
CONTINUOUS
 39
2.0
 10
2973.65980057
 20
-13575.69449489
 30
0.0
  0
VERTEX
  8
CTDYKE
  6
CONTINUOUS
 39
2.0
 10
2895.50069366
 20
-13810.7226088
 30
0.0
  0
VERTEX
  8
CTDYKE
  6
CONTINUOUS
 39
2.0
 10
2783.70349011
 20
-13956.18208174
 30
0.0
  0
VERTEX
  8
CTDYKE
  6
CONTINUOUS
 39
2.0
 10
2739.18247984
 20
-14022.82115062
 30
0.0
  0
VERTEX
  8
CTDYKE
  6
CONTINUOUS
 39
2.0
 10
2694.66146958
 20
-14134.60281456
 30
0.0
  0
VERTEX
  8
CTDYKE
  6
CONTINUOUS
 39
2.0
 10
2638.26818991
 20
-14324.48833342
 30
0.0
  0
VERTEX
  8
CTDYKE
  6
CONTINUOUS
 39
2.0
 10
2604.63009327
 20
-14570.98123337
 30
0.0
  0
VERTEX
  8
CTDYKE
  6
CONTINUOUS
 39
2.0
 10
2583.29594482
 20
-14755.03507795
 30
0.0
  0
SEQEND
  8
CTDYKE
  6
CONTINUOUS
 39
2.0
  0
POLYLINE
  8
CTDYKE
  6
CONTINUOUS
 39
2.0
 66
     1
 10
0.0
 20
0.0
 30
0.0
  0
VERTEX
  8
CTDYKE
  6
CONTINUOUS
 39
2.0
 10
3249.85178824
 20
-11184.18621034
 30
0.0
  0
VERTEX
  8
CTDYKE
  6
CONTINUOUS
 39
2.0
 10
3282.97964314
 20
-12535.98171049
 30
0.0
  0
VERTEX
  8
CTDYKE
  6
CONTINUOUS
 39
2.0
 10
3220.0093907
 20
-13050.46398424
 30
0.0
  0
VERTEX
  8
CTDYKE
  6
CONTINUOUS
 39
2.0
 10
3141.85028379
 20
-13486.12585392
 30
0.0
  0
VERTEX
  8
CTDYKE
  6
CONTINUOUS
 39
2.0
 10
3062.7018211
 20
-13788.50958584
 30
0.0
  0
VERTEX
  8
CTDYKE
  6
CONTINUOUS
 39
2.0
 10
2992.59028241
 20
-13941.77770786
 30
0.0
  0
VERTEX
  8
CTDYKE
  6
CONTINUOUS
 39
2.0
 10
2935.13477449
 20
-14016.53313673
 30
0.0
  0
VERTEX
  8
CTDYKE
  6
CONTINUOUS
 39
2.0
 10
2898.57878906
 20
-14071.25015274
 30
0.0
  0
VERTEX
  8
CTDYKE
  6
CONTINUOUS
 39
2.0
 10
2859.82412149
 20
-14168.55390217
 30
0.0
  0
VERTEX
  8
CTDYKE
  6
CONTINUOUS
 39
2.0
 10
2807.02220181
 20
-14346.34671672
 30
0.0
  0
VERTEX
  8
CTDYKE
  6
CONTINUOUS
 39
2.0
 10
2774.59879569
 20
-14583.93861992
 30
0.0
  0
VERTEX
  8
CTDYKE
  6
CONTINUOUS
 39
2.0
 10
2765.52849642
 20
-14662.1898544
 30
0.0
  0
SEQEND
  8
CTDYKE
  6
CONTINUOUS
 39
2.0
  0
POLYLINE
  8
CTDYKE
  6
CONTINUOUS
 39
2.0
 66
     1
 10
0.0
 20
0.0
 30
0.0
  0
VERTEX
  8
CTDYKE
  6
CONTINUOUS
 39
2.0
 10
3151.31080703
 20
-11182.15383414
 30
0.0
  0
VERTEX
  8
CTDYKE
  6
CONTINUOUS
 39
2.0
 10
3132.96587274
 20
-12535.98171049
 30
0.0
  0
SEQEND
  8
CTDYKE
  6
CONTINUOUS
 39
2.0
  0
POLYLINE
  8
CTDYKE
  6
CONTINUOUS
 39
2.0
 66
     1
 10
0.0
 20
0.0
 30
0.0
  0
VERTEX
  8
CTDYKE
  6
CONTINUOUS
 39
2.0
 10
853.18561215
 20
-23486.84715447
 30
0.0
  0
VERTEX
  8
CTDYKE
  6
CONTINUOUS
 39
2.0
 10
527.55287578
 20
-25537.18323283
 30
0.0
  0
SEQEND
  8
CTDYKE
  6
CONTINUOUS
 39
2.0
  0
POLYLINE
  8
CTDYKE
  6
CONTINUOUS
 39
2.0
 66
     1
 10
0.0
 20
0.0
 30
0.0
  0
VERTEX
  8
CTDYKE
  6
CONTINUOUS
 39
2.0
 10
1073.65480909
 20
-20789.8545785
 30
0.0
  0
VERTEX
  8
CTDYKE
  6
CONTINUOUS
 39
2.0
 10
1140.50011859
 20
-23055.62140717
 30
0.0
  0
SEQEND
  8
CTDYKE
  6
CONTINUOUS
 39
2.0
  0
POLYLINE
  8
CTDYKE
  6
CONTINUOUS
 39
2.0
 66
     1
 10
0.0
 20
0.0
 30
0.0
  0
VERTEX
  8
CTDYKE
  6
CONTINUOUS
 39
2.0
 10
748.21459068
 20
-17063.58184781
 30
0.0
  0
VERTEX
  8
CTDYKE
  6
CONTINUOUS
 39
2.0
 10
723.61487743
 20
-20135.88498357
 30
0.0
  0
SEQEND
  8
CTDYKE
  6
CONTINUOUS
 39
2.0
  0
POLYLINE
  8
CTDYKE
  6
CONTINUOUS
 39
2.0
 66
     1
 10
0.0
 20
0.0
 30
0.0
  0
VERTEX
  8
CTDYKE
  6
CONTINUOUS
 39
2.0
 10
-2780.16959429
 20
-25599.97057825
 30
0.0
  0
VERTEX
  8
CTDYKE
  6
CONTINUOUS
 39
2.0
 10
-2780.16959429
 20
-21888.5311401
 30
0.0
  0
VERTEX
  8
CTDYKE
  6
CONTINUOUS
 39
2.0
 10
-1739.19664739
 20
-17431.89930643
 30
0.0
  0
SEQEND
  8
CTDYKE
  6
CONTINUOUS
 39
2.0
  0
POLYLINE
  8
CTSKN
  6
CONTINUOUS
 39
2.0
 66
     1
 10
0.0
 20
0.0
 30
0.0
  0
VERTEX
  8
CTSKN
  6
CONTINUOUS
 39
2.0
 10
-9356.81396796
 20
-17199.32858815
 30
0.0
  0
VERTEX
  8
CTSKN
  6
CONTINUOUS
 39
2.0
 10
-9356.81396796
 20
-17199.32858815
 30
0.0
 42
-0.64603093
  0
SEQEND
  8
CTSKN
  6
CONTINUOUS
 39
2.0
  0
POLYLINE
  8
CTMIN
  6
CONTINUOUS
 39
2.0
 66
     1
 10
0.0
 20
0.0
 30
0.0
 40
5.0
 41
5.0
  0
VERTEX
  8
CTMIN
  6
CONTINUOUS
 39
2.0
 10
-5704.23847181
 20
-14121.12050792
 30
0.0
  0
VERTEX
  8
CTMIN
  6
CONTINUOUS
 39
2.0
 10
-5960.22292577
 20
-14142.85941339
 30
0.0
  0
VERTEX
  8
CTMIN
  6
CONTINUOUS
 39
2.0
 10
-6249.1148146
 20
-14169.37173111
 30
0.0
  0
VERTEX
  8
CTMIN
  6
CONTINUOUS
 39
2.0
 10
-6623.09130082
 20
-14185.13581192
 30
0.0
  0
VERTEX
  8
CTMIN
  6
CONTINUOUS
 39
2.0
 10
-7584.63372698
 20
-14228.92171049
 30
0.0
  0
VERTEX
  8
CTMIN
  6
CONTINUOUS
 39
2.0
 10
-7644.23606632
 20
-14232.27247584
 30
0.0
  0
VERTEX
  8
CTMIN
  6
CONTINUOUS
 39
2.0
 10
-7730.18042272
 20
-14248.19213517
 30
0.0
  0
VERTEX
  8
CTMIN
  6
CONTINUOUS
 39
2.0
 10
-7860.77538616
 20
-14258.94037208
 30
0.0
  0
VERTEX
  8
CTMIN
  6
CONTINUOUS
 39
2.0
 10
-7998.29584009
 20
-14261.8065686
 30
0.0
  0
VERTEX
  8
CTMIN
  6
CONTINUOUS
 39
2.0
 10
-8145.70985185
 20
-14258.94037208
 30
0.0
  0
VERTEX
  8
CTMIN
  6
CONTINUOUS
 39
2.0
 10
-8273.33674794
 20
-14255.35762645
 30
0.0
  0
VERTEX
  8
CTMIN
  6
CONTINUOUS
 39
2.0
 10
-8403.93171138
 20
-14248.19213517
 30
0.0
  0
VERTEX
  8
CTMIN
  6
CONTINUOUS
 39
2.0
 10
-8551.34572315
 20
-14241.74319302
 30
0.0
  0
VERTEX
  8
CTMIN
  6
CONTINUOUS
 39
2.0
 10
-8715.57878323
 20
-14230.9949561
 30
0.0
  0
VERTEX
  8
CTMIN
  6
CONTINUOUS
 39
2.0
 10
-8838.97011303
 20
-14218.11040994
 30
0.0
  0
VERTEX
  8
CTMIN
  6
CONTINUOUS
 39
2.0
 10
-8978.74742168
 20
-14204.48263837
 30
0.0
  0
VERTEX
  8
CTMIN
  6
CONTINUOUS
 39
2.0
 10
-9206.63372698
 20
-14180.92171049
 30
0.0
  0
VERTEX
  8
CTMIN
  6
CONTINUOUS
 39
2.0
 10
-10640.04258734
 20
-14005.9461593
 30
0.0
  0
SEQEND
  8
CTMIN
  6
CONTINUOUS
 39
2.0
  0
POLYLINE
  8
CTMIN
  6
CONTINUOUS
 39
2.0
 66
     1
 10
0.0
 20
0.0
 30
0.0
 40
5.0
 41
5.0
  0
VERTEX
  8
CTMIN
  6
CONTINUOUS
 39
2.0
 10
-4668.12427233
 20
-13960.48137651
 30
0.0
  0
VERTEX
  8
CTMIN
  6
CONTINUOUS
 39
2.0
 10
-4984.7181231
 20
-14014.22256109
 30
0.0
  0
SEQEND
  8
CTMIN
  6
CONTINUOUS
 39
2.0
  0
POLYLINE
  8
CTUM
  6
CONTINUOUS
 39
2.0
 66
     1
 10
0.0
 20
0.0
 30
0.0
 70
     1
  0
VERTEX
  8
CTUM
  6
CONTINUOUS
 39
2.0
 10
-4400.63372698
 20
-13756.92171049
 30
0.0
 42
0.03167957
  0
VERTEX
  8
CTUM
  6
CONTINUOUS
 39
2.0
 10
-4514.06228995
 20
-13764.11566729
 30
0.0
 42
0.04293113
  0
VERTEX
  8
CTUM
  6
CONTINUOUS
 39
2.0
 10
-4596.11375843
 20
-13781.81763409
 30
0.0
 42
0.0852701
 70
     2
 50
197.09104733
  0
VERTEX
  8
CTUM
  6
CONTINUOUS
 39
2.0
 10
-4664.17055117
 20
-13816.25331465
 30
0.0
 42
0.23737448
 50
197.09104733
  0
VERTEX
  8
CTUM
  6
CONTINUOUS
 39
2.0
 10
-4677.08423862
 20
-13841.92171049
 30
0.0
 42
0.23737448
  0
VERTEX
  8
CTUM
  6
CONTINUOUS
 39
2.0
 10
-4664.17055117
 20
-13867.59010634
 30
0.0
 42
0.0852701
  0
VERTEX
  8
CTUM
  6
CONTINUOUS
 39
2.0
 10
-4596.11375843
 20
-13902.02578689
 30
0.0
 42
0.04293113
 70
     2
 50
342.90895267
  0
VERTEX
  8
CTUM
  6
CONTINUOUS
 39
2.0
 10
-4514.06228995
 20
-13919.7277537
 30
0.0
 42
0.03167957
 50
342.90895267
  0
VERTEX
  8
CTUM
  6
CONTINUOUS
 39
2.0
 10
-4400.63372698
 20
-13926.92171049
 30
0.0
 42
0.03167957
  0
VERTEX
  8
CTUM
  6
CONTINUOUS
 39
2.0
 10
-4287.20516402
 20
-13919.7277537
 30
0.0
 42
0.04293113
  0
VERTEX
  8
CTUM
  6
CONTINUOUS
 39
2.0
 10
-4205.15369554
 20
-13902.02578689
 30
0.0
 42
0.0852701
 70
     2
 50
17.09104733
  0
VERTEX
  8
CTUM
  6
CONTINUOUS
 39
2.0
 10
-4137.0969028
 20
-13867.59010634
 30
0.0
 42
0.23737448
 50
17.09104733
  0
VERTEX
  8
CTUM
  6
CONTINUOUS
 39
2.0
 10
-4124.18321534
 20
-13841.92171049
 30
0.0
 42
0.23737448
  0
VERTEX
  8
CTUM
  6
CONTINUOUS
 39
2.0
 10
-4137.0969028
 20
-13816.25331465
 30
0.0
 42
0.0852701
  0
VERTEX
  8
CTUM
  6
CONTINUOUS
 39
2.0
 10
-4205.15369554
 20
-13781.81763409
 30
0.0
 42
0.04293113
 70
     2
 50
162.90895267
  0
VERTEX
  8
CTUM
  6
CONTINUOUS
 39
2.0
 10
-4287.20516402
 20
-13764.11566729
 30
0.0
 42
0.03167957
 50
162.90895267
  0
SEQEND
  8
CTUM
  6
CONTINUOUS
 39
2.0
  0
POLYLINE
  8
CTDYKE
  6
CONTINUOUS
 39
2.0
 66
     1
 10
0.0
 20
0.0
 30
0.0
  0
VERTEX
  8
CTDYKE
  6
CONTINUOUS
 39
2.0
 10
-734.20681915
 20
-11194.9913162
 30
0.0
  0
VERTEX
  8
CTDYKE
  6
CONTINUOUS
 39
2.0
 10
-1442.13340881
 20
-16670.23793066
 30
0.0
  0
SEQEND
  8
CTDYKE
  6
CONTINUOUS
 39
2.0
  0
POLYLINE
  8
CTDYKE
  6
CONTINUOUS
 39
2.0
 66
     1
 10
0.0
 20
0.0
 30
0.0
  0
VERTEX
  8
CTDYKE
  6
CONTINUOUS
 39
2.0
 10
-2680.16959429
 20
-25599.97057825
 30
0.0
  0
VERTEX
  8
CTDYKE
  6
CONTINUOUS
 39
2.0
 10
-2680.16959429
 20
-21900.05496588
 30
0.0
  0
VERTEX
  8
CTDYKE
  6
CONTINUOUS
 39
2.0
 10
-1641.81780994
 20
-17454.64489978
 30
0.0
  0
SEQEND
  8
CTDYKE
  6
CONTINUOUS
 39
2.0
  0
POLYLINE
  8
CTDYKE
  6
CONTINUOUS
 39
2.0
 66
     1
 10
0.0
 20
0.0
 30
0.0
  0
VERTEX
  8
CTDYKE
  6
CONTINUOUS
 39
2.0
 10
848.21138529
 20
-17064.38251505
 30
0.0
  0
VERTEX
  8
CTDYKE
  6
CONTINUOUS
 39
2.0
 10
823.61167204
 20
-20136.68565081
 30
0.0
  0
SEQEND
  8
CTDYKE
  6
CONTINUOUS
 39
2.0
  0
POLYLINE
  8
CTDYKE
  6
CONTINUOUS
 39
2.0
 66
     1
 10
0.0
 20
0.0
 30
0.0
  0
VERTEX
  8
CTDYKE
  6
CONTINUOUS
 39
2.0
 10
951.94780307
 20
-23502.53248666
 30
0.0
  0
VERTEX
  8
CTDYKE
  6
CONTINUOUS
 39
2.0
 10
626.31506669
 20
-25552.86856502
 30
0.0
  0
SEQEND
  8
CTDYKE
  6
CONTINUOUS
 39
2.0
  0
POLYLINE
  8
CTDYKE
  6
CONTINUOUS
 39
2.0
 66
     1
 10
0.0
 20
0.0
 30
0.0
  0
VERTEX
  8
CTDYKE
  6
CONTINUOUS
 39
2.0
 10
1173.61131823
 20
-20786.9056326
 30
0.0
  0
VERTEX
  8
CTDYKE
  6
CONTINUOUS
 39
2.0
 10
1240.45662772
 20
-23052.67246127
 30
0.0
  0
SEQEND
  8
CTDYKE
  6
CONTINUOUS
 39
2.0
  0
POLYLINE
  8
GRID
  6
CONTINUOUS
 66
     1
 10
0.0
 20
0.0
 30
0.0
  0
VERTEX
  8
GRID
  6
CONTINUOUS
 10
12000.0
 20
-23500.0
 30
0.0
  0
VERTEX
  8
GRID
  6
CONTINUOUS
 10
12000.0
 20
-24500.0
 30
0.0
  0
SEQEND
  8
GRID
  6
CONTINUOUS
  0
POLYLINE
  8
GRID
  6
CONTINUOUS
 66
     1
 10
0.0
 20
0.0
 30
0.0
  0
VERTEX
  8
GRID
  6
CONTINUOUS
 10
11500.0
 20
-24000.0
 30
0.0
  0
VERTEX
  8
GRID
  6
CONTINUOUS
 10
12500.0
 20
-24000.0
 30
0.0
  0
SEQEND
  8
GRID
  6
CONTINUOUS
  0
POLYLINE
  8
GRID
  6
CONTINUOUS
 66
     1
 10
0.0
 20
0.0
 30
0.0
  0
VERTEX
  8
GRID
  6
CONTINUOUS
 10
-4500.0
 20
-24000.0
 30
0.0
  0
VERTEX
  8
GRID
  6
CONTINUOUS
 10
-3500.0
 20
-24000.0
 30
0.0
  0
SEQEND
  8
GRID
  6
CONTINUOUS
  0
POLYLINE
  8
GRID
  6
CONTINUOUS
 66
     1
 10
0.0
 20
0.0
 30
0.0
  0
VERTEX
  8
GRID
  6
CONTINUOUS
 10
-4000.0
 20
-23500.0
 30
0.0
  0
VERTEX
  8
GRID
  6
CONTINUOUS
 10
-4000.0
 20
-24500.0
 30
0.0
  0
SEQEND
  8
GRID
  6
CONTINUOUS
  0
INSERT
  8
SHR
  6
CONTINUOUS
  2
FLTRACE
 10
-10584.47185854
 20
-15280.54025159
 30
0.0
 41
17.39130435
 42
17.39130435
 50
353.51654657
 43
17.39130435
  0
INSERT
  8
SHR
  6
CONTINUOUS
  2
FLTRACE
 10
-10238.87029108
 20
-15319.81547708
 30
0.0
 41
17.39130435
 42
17.39130435
 50
353.51654657
 43
17.39130435
  0
INSERT
  8
SHR
  6
CONTINUOUS
  2
FLTRACE
 10
-9893.26872362
 20
-15359.09070256
 30
0.0
 41
17.39130435
 42
17.39130435
 50
353.51654657
 43
17.39130435
  0
INSERT
  8
SHR
  6
CONTINUOUS
  2
FLTRACE
 10
-9547.66715616
 20
-15398.36592805
 30
0.0
 41
17.39130435
 42
17.39130435
 50
353.51654657
 43
17.39130435
  0
INSERT
  8
SHR
  6
CONTINUOUS
  2
FLTRACE
 10
-9202.0655887
 20
-15437.64115354
 30
0.0
 41
17.39130435
 42
17.39130435
 50
353.51654657
 43
17.39130435
  0
INSERT
  8
SHR
  6
CONTINUOUS
  2
FLTRACE
 10
-8856.46402125
 20
-15476.91637903
 30
0.0
 41
17.39130435
 42
17.39130435
 50
353.51654657
 43
17.39130435
  0
INSERT
  8
SHR
  6
CONTINUOUS
  2
FLTRACE
 10
-8510.86245379
 20
-15516.19160451
 30
0.0
 41
17.39130435
 42
17.39130435
 50
353.51654657
 43
17.39130435
  0
INSERT
  8
SHR
  6
CONTINUOUS
  2
FLTRACE
 10
-8165.26088633
 20
-15555.46683
 30
0.0
 41
17.39130435
 42
17.39130435
 50
353.51654657
 43
17.39130435
  0
INSERT
  8
SHR
  6
CONTINUOUS
  2
FLTRACE
 10
-7819.65931887
 20
-15594.74205549
 30
0.0
 41
17.39130435
 42
17.39130435
 50
353.51654657
 43
17.39130435
  0
INSERT
  8
SHR
  6
CONTINUOUS
  2
FLTRACE
 10
-7474.05775141
 20
-15634.01728097
 30
0.0
 41
17.39130435
 42
17.39130435
 50
353.51654657
 43
17.39130435
  0
INSERT
  8
SHR
  6
CONTINUOUS
  2
FLTRACE
 10
-7128.45618395
 20
-15673.29250646
 30
0.0
 41
17.39130435
 42
17.39130435
 50
353.51654657
 43
17.39130435
  0
INSERT
  8
SHR
  6
CONTINUOUS
  2
FLTRACE
 10
-6782.85461649
 20
-15712.56773195
 30
0.0
 41
17.39130435
 42
17.39130435
 50
353.51654657
 43
17.39130435
  0
INSERT
  8
SHR
  6
CONTINUOUS
  2
FLTRACE
 10
-6437.25304903
 20
-15751.84295744
 30
0.0
 41
17.39130435
 42
17.39130435
 50
353.51654657
 43
17.39130435
  0
INSERT
  8
SHR
  6
CONTINUOUS
  2
FLTRACE
 10
-6091.65148157
 20
-15791.11818292
 30
0.0
 41
17.39130435
 42
17.39130435
 50
353.51654657
 43
17.39130435
  0
INSERT
  8
SHR
  6
CONTINUOUS
  2
FLTRACE
 10
-5745.2505478
 20
-15820.27192654
 30
0.0
 41
17.39130435
 42
17.39130435
 50
357.45207908
 43
17.39130435
  0
INSERT
  8
SHR
  6
CONTINUOUS
  2
FLTRACE
 10
-5050.28610267
 20
-15851.19711184
 30
0.0
 41
17.39130435
 42
17.39130435
 50
357.45207908
 43
17.39130435
  0
INSERT
  8
SHR
  6
CONTINUOUS
  2
FLTRACE
 10
-4702.80388011
 20
-15866.65970449
 30
0.0
 41
17.39130435
 42
17.39130435
 50
357.45207908
 43
17.39130435
  0
INSERT
  8
SHR
  6
CONTINUOUS
  2
FLTRACE
 10
-4355.32165755
 20
-15882.12229714
 30
0.0
 41
17.39130435
 42
17.39130435
 50
357.45207908
 43
17.39130435
  0
INSERT
  8
SHR
  6
CONTINUOUS
  2
FLTRACE
 10
-4007.83943499
 20
-15897.58488979
 30
0.0
 41
17.39130435
 42
17.39130435
 50
357.45207908
 43
17.39130435
  0
INSERT
  8
SHR
  6
CONTINUOUS
  2
FLTRACE
 10
-3660.35721243
 20
-15913.04748244
 30
0.0
 41
17.39130435
 42
17.39130435
 50
357.45207908
 43
17.39130435
  0
INSERT
  8
SHR
  6
CONTINUOUS
  2
FLTRACE
 10
-3312.87498987
 20
-15928.51007509
 30
0.0
 41
17.39130435
 42
17.39130435
 50
357.45207908
 43
17.39130435
  0
INSERT
  8
SHR
  6
CONTINUOUS
  2
FLTRACE
 10
-2965.39276731
 20
-15943.97266773
 30
0.0
 41
17.39130435
 42
17.39130435
 50
357.45207908
 43
17.39130435
  0
INSERT
  8
SHR
  6
CONTINUOUS
  2
FLTRACE
 10
-2617.91054475
 20
-15959.43526038
 30
0.0
 41
17.39130435
 42
17.39130435
 50
357.45207908
 43
17.39130435
  0
INSERT
  8
SHR
  6
CONTINUOUS
  2
FLTRACE
 10
-2270.42832219
 20
-15974.89785303
 30
0.0
 41
17.39130435
 42
17.39130435
 50
357.45207908
 43
17.39130435
  0
INSERT
  8
SHR
  6
CONTINUOUS
  2
FLTRACE
 10
61.98572929
 20
-16627.62226653
 30
0.0
 41
17.39130435
 42
17.39130435
 50
73.66434262
 43
17.39130435
  0
INSERT
  8
SHR
  6
CONTINUOUS
  2
FLTRACE
 10
159.81667835
 20
-16293.83776693
 30
0.0
 41
17.39130435
 42
17.39130435
 50
73.66434262
 43
17.39130435
  0
INSERT
  8
SHR
  6
CONTINUOUS
  2
FLTRACE
 10
257.64762741
 20
-15960.05326733
 30
0.0
 41
17.39130435
 42
17.39130435
 50
73.66434262
 43
17.39130435
  0
INSERT
  8
SHR
  6
CONTINUOUS
  2
FLTRACE
 10
355.47857647
 20
-15626.26876772
 30
0.0
 41
17.39130435
 42
17.39130435
 50
73.66434262
 43
17.39130435
  0
INSERT
  8
SHR
  6
CONTINUOUS
  2
FLTRACE
 10
453.30952552
 20
-15292.48426812
 30
0.0
 41
17.39130435
 42
17.39130435
 50
73.66434262
 43
17.39130435
  0
INSERT
  8
SHR
  6
CONTINUOUS
  2
FLTRACE
 10
551.14047458
 20
-14958.69976852
 30
0.0
 41
17.39130435
 42
17.39130435
 50
73.66434262
 43
17.39130435
  0
INSERT
  8
SHR
  6
CONTINUOUS
  2
FLTRACE
 10
648.97142364
 20
-14624.91526892
 30
0.0
 41
17.39130435
 42
17.39130435
 50
73.66434262
 43
17.39130435
  0
INSERT
  8
SHR
  6
CONTINUOUS
  2
FLTRACE
 10
-780.94539838
 20
-15364.18735295
 30
0.0
 41
17.39130435
 42
17.39130435
 50
25.24660231
 43
17.39130435
  0
INSERT
  8
SHR
  6
CONTINUOUS
  2
FLTRACE
 10
-466.34350628
 20
-15215.83427325
 30
0.0
 41
17.39130435
 42
17.39130435
 50
25.24660231
 43
17.39130435
  0
INSERT
  8
SHR
  6
CONTINUOUS
  2
FLTRACE
 10
-151.74161418
 20
-15067.48119355
 30
0.0
 41
17.39130435
 42
17.39130435
 50
25.24660231
 43
17.39130435
  0
INSERT
  8
SHR
  6
CONTINUOUS
  2
FLTRACE
 10
162.86027792
 20
-14919.12811385
 30
0.0
 41
17.39130435
 42
17.39130435
 50
25.24660231
 43
17.39130435
  0
INSERT
  8
SHR
  6
CONTINUOUS
  2
FLTRACE
 10
477.46217001
 20
-14770.77503415
 30
0.0
 41
17.39130435
 42
17.39130435
 50
25.24660231
 43
17.39130435
  0
INSERT
  8
SHR
  6
CONTINUOUS
  2
FLTRACE
 10
1421.2678463
 20
-14325.71579505
 30
0.0
 41
17.39130435
 42
17.39130435
 50
25.24660231
 43
17.39130435
  0
INSERT
  8
SHR
  6
CONTINUOUS
  2
FLTRACE
 10
1735.8697384
 20
-14177.36271535
 30
0.0
 41
17.39130435
 42
17.39130435
 50
25.24660231
 43
17.39130435
  0
INSERT
  8
SHR
  6
CONTINUOUS
  2
FLTRACE
 10
2050.4716305
 20
-14029.00963565
 30
0.0
 41
17.39130435
 42
17.39130435
 50
25.24660231
 43
17.39130435
  0
INSERT
  8
SHR
  6
CONTINUOUS
  2
FLTRACE
 10
-976.83784354
 20
-16852.37839105
 30
0.0
 41
17.39130435
 42
17.39130435
 50
75.21521633
 43
17.39130435
  0
INSERT
  8
SHR
  6
CONTINUOUS
  2
FLTRACE
 10
-888.07645757
 20
-16516.06841034
 30
0.0
 41
17.39130435
 42
17.39130435
 50
75.21521633
 43
17.39130435
  0
INSERT
  8
SHR
  6
CONTINUOUS
  2
FLTRACE
 10
-799.31507159
 20
-16179.75842962
 30
0.0
 41
17.39130435
 42
17.39130435
 50
75.21521633
 43
17.39130435
  0
INSERT
  8
SHR
  6
CONTINUOUS
  2
FLTRACE
 10
-710.55368562
 20
-15843.44844891
 30
0.0
 41
17.39130435
 42
17.39130435
 50
75.21521633
 43
17.39130435
  0
INSERT
  8
SHR
  6
CONTINUOUS
  2
FLTRACE
 10
-621.79229965
 20
-15507.13846819
 30
0.0
 41
17.39130435
 42
17.39130435
 50
75.21521633
 43
17.39130435
  0
INSERT
  8
SHR
  6
CONTINUOUS
  2
FLTRACE
 10
-10584.47185854
 20
-20810.70470061
 30
0.0
 41
17.39130435
 42
17.39130435
 50
356.22536027
 43
17.39130435
  0
INSERT
  8
SHR
  6
CONTINUOUS
  2
FLTRACE
 10
-10237.40030907
 20
-20833.6028734
 30
0.0
 41
17.39130435
 42
17.39130435
 50
356.22536027
 43
17.39130435
  0
INSERT
  8
SHR
  6
CONTINUOUS
  2
FLTRACE
 10
-9890.32875961
 20
-20856.5010462
 30
0.0
 41
17.39130435
 42
17.39130435
 50
356.22536027
 43
17.39130435
  0
INSERT
  8
SHR
  6
CONTINUOUS
  2
FLTRACE
 10
-9543.25721014
 20
-20879.39921899
 30
0.0
 41
17.39130435
 42
17.39130435
 50
356.22536027
 43
17.39130435
  0
INSERT
  8
SHR
  6
CONTINUOUS
  2
FLTRACE
 10
-9196.18566067
 20
-20902.29739179
 30
0.0
 41
17.39130435
 42
17.39130435
 50
356.22536027
 43
17.39130435
  0
INSERT
  8
SHR
  6
CONTINUOUS
  2
FLTRACE
 10
-8849.1141112
 20
-20925.19556458
 30
0.0
 41
17.39130435
 42
17.39130435
 50
356.22536027
 43
17.39130435
  0
INSERT
  8
SHR
  6
CONTINUOUS
  2
FLTRACE
 10
-8502.04256173
 20
-20948.09373738
 30
0.0
 41
17.39130435
 42
17.39130435
 50
356.22536027
 43
17.39130435
  0
INSERT
  8
SHR
  6
CONTINUOUS
  2
FLTRACE
 10
-8154.97101227
 20
-20970.99191017
 30
0.0
 41
17.39130435
 42
17.39130435
 50
356.22536027
 43
17.39130435
  0
INSERT
  8
SHR
  6
CONTINUOUS
  2
FLTRACE
 10
-7807.8994628
 20
-20993.89008297
 30
0.0
 41
17.39130435
 42
17.39130435
 50
356.22536027
 43
17.39130435
  0
INSERT
  8
SHR
  6
CONTINUOUS
  2
FLTRACE
 10
-7460.82791333
 20
-21016.78825576
 30
0.0
 41
17.39130435
 42
17.39130435
 50
356.22536027
 43
17.39130435
  0
INSERT
  8
SHR
  6
CONTINUOUS
  2
FLTRACE
 10
-7113.75636386
 20
-21039.68642856
 30
0.0
 41
17.39130435
 42
17.39130435
 50
356.22536027
 43
17.39130435
  0
INSERT
  8
SHR
  6
CONTINUOUS
  2
FLTRACE
 10
-6766.68481439
 20
-21062.58460135
 30
0.0
 41
17.39130435
 42
17.39130435
 50
356.22536027
 43
17.39130435
  0
INSERT
  8
SHR
  6
CONTINUOUS
  2
FLTRACE
 10
-6419.61326493
 20
-21085.48277415
 30
0.0
 41
17.39130435
 42
17.39130435
 50
356.22536027
 43
17.39130435
  0
INSERT
  8
SHR
  6
CONTINUOUS
  2
FLTRACE
 10
-6072.54171546
 20
-21108.38094694
 30
0.0
 41
17.39130435
 42
17.39130435
 50
356.22536027
 43
17.39130435
  0
INSERT
  8
SHR
  6
CONTINUOUS
  2
FLTRACE
 10
-5725.47016599
 20
-21131.27911974
 30
0.0
 41
17.39130435
 42
17.39130435
 50
356.22536027
 43
17.39130435
  0
INSERT
  8
SHR
  6
CONTINUOUS
  2
FLTRACE
 10
-5378.39861652
 20
-21154.17729253
 30
0.0
 41
17.39130435
 42
17.39130435
 50
356.22536027
 43
17.39130435
  0
INSERT
  8
SHR
  6
CONTINUOUS
  2
FLTRACE
 10
-190.29999554
 20
-20080.42913743
 30
0.0
 41
17.39130435
 42
17.39130435
 50
351.03081723
 43
17.39130435
  0
INSERT
  8
SHR
  6
CONTINUOUS
  2
FLTRACE
 10
153.27299156
 20
-20134.65633821
 30
0.0
 41
17.39130435
 42
17.39130435
 50
351.03081723
 43
17.39130435
  0
INSERT
  8
SHR
  6
CONTINUOUS
  2
FLTRACE
 10
496.84597866
 20
-20188.88353898
 30
0.0
 41
17.39130435
 42
17.39130435
 50
351.03081723
 43
17.39130435
  0
INSERT
  8
SHR
  6
CONTINUOUS
  2
FLTRACE
 10
840.41896576
 20
-20243.11073976
 30
0.0
 41
17.39130435
 42
17.39130435
 50
351.03081723
 43
17.39130435
  0
INSERT
  8
SHR
  6
CONTINUOUS
  2
FLTRACE
 10
1183.99195285
 20
-20297.33794053
 30
0.0
 41
17.39130435
 42
17.39130435
 50
351.03081723
 43
17.39130435
  0
INSERT
  8
SHR
  6
CONTINUOUS
  2
FLTRACE
 10
1527.56493995
 20
-20351.56514131
 30
0.0
 41
17.39130435
 42
17.39130435
 50
351.03081723
 43
17.39130435
  0
INSERT
  8
SHR
  6
CONTINUOUS
  2
FLTRACE
 10
1871.13792705
 20
-20405.79234208
 30
0.0
 41
17.39130435
 42
17.39130435
 50
351.03081723
 43
17.39130435
  0
INSERT
  8
SHR
  6
CONTINUOUS
  2
FLTRACE
 10
2214.71091415
 20
-20460.01954286
 30
0.0
 41
17.39130435
 42
17.39130435
 50
351.03081723
 43
17.39130435
  0
INSERT
  8
SHR
  6
CONTINUOUS
  2
FLTRACE
 10
2559.20598385
 20
-20504.99096846
 30
0.0
 41
17.39130435
 42
17.39130435
 50
357.59083866
 43
17.39130435
  0
INSERT
  8
SHR
  6
CONTINUOUS
  2
FLTRACE
 10
2906.72463484
 20
-20519.61198011
 30
0.0
 41
17.39130435
 42
17.39130435
 50
357.59083866
 43
17.39130435
  0
INSERT
  8
SHR
  6
CONTINUOUS
  2
FLTRACE
 10
3254.24328583
 20
-20534.23299176
 30
0.0
 41
17.39130435
 42
17.39130435
 50
357.59083866
 43
17.39130435
  0
INSERT
  8
SHR
  6
CONTINUOUS
  2
FLTRACE
 10
3601.76193682
 20
-20548.85400341
 30
0.0
 41
17.39130435
 42
17.39130435
 50
357.59083866
 43
17.39130435
  0
INSERT
  8
SHR
  6
CONTINUOUS
  2
FLTRACE
 10
-1622.88717026
 20
-19126.12481583
 30
0.0
 41
17.39130435
 42
17.39130435
 50
339.68375997
 43
17.39130435
  0
INSERT
  8
SHR
  6
CONTINUOUS
  2
FLTRACE
 10
-1296.69914911
 20
-19246.89054617
 30
0.0
 41
17.39130435
 42
17.39130435
 50
339.68375997
 43
17.39130435
  0
INSERT
  8
SHR
  6
CONTINUOUS
  2
FLTRACE
 10
-970.51112795
 20
-19367.65627651
 30
0.0
 41
17.39130435
 42
17.39130435
 50
339.68375997
 43
17.39130435
  0
INSERT
  8
SHR
  6
CONTINUOUS
  2
FLTRACE
 10
-644.3231068
 20
-19488.42200684
 30
0.0
 41
17.39130435
 42
17.39130435
 50
339.68375997
 43
17.39130435
  0
INSERT
  8
SHR
  6
CONTINUOUS
  2
FLTRACE
 10
-318.13508565
 20
-19609.18773718
 30
0.0
 41
17.39130435
 42
17.39130435
 50
339.68375997
 43
17.39130435
  0
INSERT
  8
SHR
  6
CONTINUOUS
  2
FLTRACE
 10
1589.55105924
 20
-13512.31326546
 30
0.0
 41
17.39130435
 42
17.39130435
 50
28.75557331
 43
17.39130435
  0
INSERT
  8
SHR
  6
CONTINUOUS
  2
FLTRACE
 10
1894.48322082
 20
-13344.98316175
 30
0.0
 41
17.39130435
 42
17.39130435
 50
28.75557331
 43
17.39130435
  0
INSERT
  8
SHR
  6
CONTINUOUS
  2
FLTRACE
 10
2199.41538239
 20
-13177.65305805
 30
0.0
 41
17.39130435
 42
17.39130435
 50
28.75557331
 43
17.39130435
  0
INSERT
  8
SHR
  6
CONTINUOUS
  2
FLTRACE
 10
2504.34754396
 20
-13010.32295434
 30
0.0
 41
17.39130435
 42
17.39130435
 50
28.75557331
 43
17.39130435
  0
INSERT
  8
SHR
  6
CONTINUOUS
  2
FLTRACE
 10
3419.14402868
 20
-12508.33264323
 30
0.0
 41
17.39130435
 42
17.39130435
 50
28.75557331
 43
17.39130435
  0
INSERT
  8
SHR
  6
CONTINUOUS
  2
FLTRACE
 10
3724.07619026
 20
-12341.00253952
 30
0.0
 41
17.39130435
 42
17.39130435
 50
28.75557331
 43
17.39130435
  0
INSERT
  8
SHR
  6
CONTINUOUS
  2
FLTRACE
 10
3324.88110376
 20
-11416.77153487
 30
0.0
 41
17.39130435
 42
17.39130435
 50
335.34488625
 43
17.39130435
  0
INSERT
  8
SHR
  6
CONTINUOUS
  2
FLTRACE
 10
3640.99771634
 20
-11561.86899874
 30
0.0
 41
17.39130435
 42
17.39130435
 50
335.34488625
 43
17.39130435
  0
INSERT
  8
SHR
  6
CONTINUOUS
  2
FLTRACE
 10
7707.72722532
 20
-21883.56969631
 30
0.0
 41
17.39130435
 42
17.39130435
 50
159.33165301
 43
17.39130435
  0
INSERT
  8
SHR
  6
CONTINUOUS
  2
FLTRACE
 10
7382.28751577
 20
-21760.80169473
 30
0.0
 41
17.39130435
 42
17.39130435
 50
159.33165301
 43
17.39130435
  0
INSERT
  8
SHR
  6
CONTINUOUS
  2
FLTRACE
 10
7056.84780621
 20
-21638.03369315
 30
0.0
 41
17.39130435
 42
17.39130435
 50
159.33165301
 43
17.39130435
  0
INSERT
  8
SHR
  6
CONTINUOUS
  2
FLTRACE
 10
6731.40809665
 20
-21515.26569157
 30
0.0
 41
17.39130435
 42
17.39130435
 50
159.33165301
 43
17.39130435
  0
INSERT
  8
SHR
  6
CONTINUOUS
  2
FLTRACE
 10
6405.9683871
 20
-21392.49768999
 30
0.0
 41
17.39130435
 42
17.39130435
 50
159.33165301
 43
17.39130435
  0
INSERT
  8
SHR
  6
CONTINUOUS
  2
FLTRACE
 10
6080.52867754
 20
-21269.72968841
 30
0.0
 41
17.39130435
 42
17.39130435
 50
159.33165301
 43
17.39130435
  0
INSERT
  8
SHR
  6
CONTINUOUS
  2
FLTRACE
 10
5755.08896799
 20
-21146.96168683
 30
0.0
 41
17.39130435
 42
17.39130435
 50
159.33165301
 43
17.39130435
  0
INSERT
  8
SHR
  6
CONTINUOUS
  2
FLTRACE
 10
5429.64925843
 20
-21024.19368526
 30
0.0
 41
17.39130435
 42
17.39130435
 50
159.33165301
 43
17.39130435
  0
INSERT
  8
SHR
  6
CONTINUOUS
  2
FLTRACE
 10
5104.20954888
 20
-20901.42568368
 30
0.0
 41
17.39130435
 42
17.39130435
 50
159.33165301
 43
17.39130435
  0
INSERT
  8
SHR
  6
CONTINUOUS
  2
FLTRACE
 10
4778.76983932
 20
-20778.6576821
 30
0.0
 41
17.39130435
 42
17.39130435
 50
159.33165301
 43
17.39130435
  0
INSERT
  8
SHR
  6
CONTINUOUS
  2
FLTRACE
 10
4453.33012976
 20
-20655.88968052
 30
0.0
 41
17.39130435
 42
17.39130435
 50
159.33165301
 43
17.39130435
  0
INSERT
  8
SHR
  6
CONTINUOUS
  2
FLTRACE
 10
6938.00842564
 20
-24862.86123691
 30
0.0
 41
17.39130435
 42
17.39130435
 50
170.09372935
 43
17.39130435
  0
INSERT
  8
SHR
  6
CONTINUOUS
  2
FLTRACE
 10
6595.36825043
 20
-24803.02231063
 30
0.0
 41
17.39130435
 42
17.39130435
 50
170.09372935
 43
17.39130435
  0
INSERT
  8
SHR
  6
CONTINUOUS
  2
FLTRACE
 10
6252.72807522
 20
-24743.18338435
 30
0.0
 41
17.39130435
 42
17.39130435
 50
170.09372935
 43
17.39130435
  0
INSERT
  8
SHR
  6
CONTINUOUS
  2
FLTRACE
 10
5910.08790001
 20
-24683.34445807
 30
0.0
 41
17.39130435
 42
17.39130435
 50
170.09372935
 43
17.39130435
  0
INSERT
  8
SHR
  6
CONTINUOUS
  2
FLTRACE
 10
5567.4477248
 20
-24623.50553179
 30
0.0
 41
17.39130435
 42
17.39130435
 50
170.09372935
 43
17.39130435
  0
INSERT
  8
SHR
  6
CONTINUOUS
  2
FLTRACE
 10
5224.80754959
 20
-24563.66660551
 30
0.0
 41
17.39130435
 42
17.39130435
 50
170.09372935
 43
17.39130435
  0
INSERT
  8
SHR
  6
CONTINUOUS
  2
FLTRACE
 10
4882.16737437
 20
-24503.82767923
 30
0.0
 41
17.39130435
 42
17.39130435
 50
170.09372935
 43
17.39130435
  0
INSERT
  8
SHR
  6
CONTINUOUS
  2
FLTRACE
 10
4539.52719916
 20
-24443.98875295
 30
0.0
 41
17.39130435
 42
17.39130435
 50
170.09372935
 43
17.39130435
  0
INSERT
  8
SHR
  6
CONTINUOUS
  2
FLTRACE
 10
4196.88702395
 20
-24384.14982667
 30
0.0
 41
17.39130435
 42
17.39130435
 50
170.09372935
 43
17.39130435
  0
INSERT
  8
SHR
  6
CONTINUOUS
  2
FLTRACE
 10
3854.24684874
 20
-24324.31090039
 30
0.0
 41
17.39130435
 42
17.39130435
 50
170.09372935
 43
17.39130435
  0
INSERT
  8
SHR
  6
CONTINUOUS
  2
FLTRACE
 10
3511.60667353
 20
-24264.47197411
 30
0.0
 41
17.39130435
 42
17.39130435
 50
170.09372935
 43
17.39130435
  0
INSERT
  8
SHR
  6
CONTINUOUS
  2
FLTRACE
 10
3168.96649832
 20
-24204.63304783
 30
0.0
 41
17.39130435
 42
17.39130435
 50
170.09372935
 43
17.39130435
  0
INSERT
  8
SHR
  6
CONTINUOUS
  2
FLTRACE
 10
2826.3263231
 20
-24144.79412154
 30
0.0
 41
17.39130435
 42
17.39130435
 50
170.09372935
 43
17.39130435
  0
INSERT
  8
SHR
  6
CONTINUOUS
  2
FLTRACE
 10
2483.68614789
 20
-24084.95519526
 30
0.0
 41
17.39130435
 42
17.39130435
 50
170.09372935
 43
17.39130435
  0
INSERT
  8
SHR
  6
CONTINUOUS
  2
FLTRACE
 10
2141.04597268
 20
-24025.11626898
 30
0.0
 41
17.39130435
 42
17.39130435
 50
170.09372935
 43
17.39130435
  0
INSERT
  8
SHR
  6
CONTINUOUS
  2
FLTRACE
 10
1798.40579747
 20
-23965.2773427
 30
0.0
 41
17.39130435
 42
17.39130435
 50
170.09372935
 43
17.39130435
  0
INSERT
  8
SHR
  6
CONTINUOUS
  2
FLTRACE
 10
1455.76562226
 20
-23905.43841642
 30
0.0
 41
17.39130435
 42
17.39130435
 50
170.09372935
 43
17.39130435
  0
INSERT
  8
SHR
  6
CONTINUOUS
  2
FLTRACE
 10
-8268.38996902
 20
-25264.36732343
 30
0.0
 41
17.39130435
 42
17.39130435
 50
20.12473245
 43
17.39130435
  0
INSERT
  8
SHR
  6
CONTINUOUS
  2
FLTRACE
 10
-7941.80011875
 20
-25144.69252882
 30
0.0
 41
17.39130435
 42
17.39130435
 50
20.12473245
 43
17.39130435
  0
INSERT
  8
SHR
  6
CONTINUOUS
  2
FLTRACE
 10
-7615.21026848
 20
-25025.0177342
 30
0.0
 41
17.39130435
 42
17.39130435
 50
20.12473245
 43
17.39130435
  0
INSERT
  8
SHR
  6
CONTINUOUS
  2
FLTRACE
 10
-7288.62041821
 20
-24905.34293958
 30
0.0
 41
17.39130435
 42
17.39130435
 50
20.12473245
 43
17.39130435
  0
INSERT
  8
SHR
  6
CONTINUOUS
  2
FLTRACE
 10
-6962.03056793
 20
-24785.66814496
 30
0.0
 41
17.39130435
 42
17.39130435
 50
20.12473245
 43
17.39130435
  0
INSERT
  8
SHR
  6
CONTINUOUS
  2
FLTRACE
 10
-6635.44071766
 20
-24665.99335034
 30
0.0
 41
17.39130435
 42
17.39130435
 50
20.12473245
 43
17.39130435
  0
INSERT
  8
SHR
  6
CONTINUOUS
  2
FLTRACE
 10
-6308.85086739
 20
-24546.31855573
 30
0.0
 41
17.39130435
 42
17.39130435
 50
20.12473245
 43
17.39130435
  0
INSERT
  8
SHR
  6
CONTINUOUS
  2
FLTRACE
 10
-5982.26101712
 20
-24426.64376111
 30
0.0
 41
17.39130435
 42
17.39130435
 50
20.12473245
 43
17.39130435
  0
INSERT
  8
SHR
  6
CONTINUOUS
  2
FLTRACE
 10
-5655.67116685
 20
-24306.96896649
 30
0.0
 41
17.39130435
 42
17.39130435
 50
20.12473245
 43
17.39130435
  0
INSERT
  8
SHR
  6
CONTINUOUS
  2
FLTRACE
 10
-5329.08131658
 20
-24187.29417187
 30
0.0
 41
17.39130435
 42
17.39130435
 50
20.12473245
 43
17.39130435
  0
INSERT
  8
SHR
  6
CONTINUOUS
  2
FLTRACE
 10
-5002.4914663
 20
-24067.61937725
 30
0.0
 41
17.39130435
 42
17.39130435
 50
20.12473245
 43
17.39130435
  0
INSERT
  8
SHR
  6
CONTINUOUS
  2
FLTRACE
 10
-4675.90161603
 20
-23947.94458264
 30
0.0
 41
17.39130435
 42
17.39130435
 50
20.12473245
 43
17.39130435
  0
INSERT
  8
SHR
  6
CONTINUOUS
  2
FLTRACE
 10
-4349.31176576
 20
-23828.26978802
 30
0.0
 41
17.39130435
 42
17.39130435
 50
20.12473245
 43
17.39130435
  0
INSERT
  8
SHR
  6
CONTINUOUS
  2
FLTRACE
 10
-4022.72191549
 20
-23708.5949934
 30
0.0
 41
17.39130435
 42
17.39130435
 50
20.12473245
 43
17.39130435
  0
INSERT
  8
SHR
  6
CONTINUOUS
  2
FLTRACE
 10
-3696.13206522
 20
-23588.92019878
 30
0.0
 41
17.39130435
 42
17.39130435
 50
20.12473245
 43
17.39130435
  0
INSERT
  8
SHR
  6
CONTINUOUS
  2
FLTRACE
 10
-3369.54221494
 20
-23469.24540417
 30
0.0
 41
17.39130435
 42
17.39130435
 50
20.12473245
 43
17.39130435
  0
INSERT
  8
SHR
  6
CONTINUOUS
  2
FLTRACE
 10
-10478.61078969
 20
-25532.03804779
 30
0.0
 41
17.39130435
 42
17.39130435
 50
34.48938865
 43
17.39130435
  0
INSERT
  8
SHR
  6
CONTINUOUS
  2
FLTRACE
 10
-10191.92172026
 20
-25335.08027506
 30
0.0
 41
17.39130435
 42
17.39130435
 50
34.48938865
 43
17.39130435
  0
INSERT
  8
SHR
  6
CONTINUOUS
  2
FLTRACE
 10
-9905.23265084
 20
-25138.12250233
 30
0.0
 41
17.39130435
 42
17.39130435
 50
34.48938865
 43
17.39130435
  0
INSERT
  8
SHR
  6
CONTINUOUS
  2
FLTRACE
 10
-9618.54358141
 20
-24941.1647296
 30
0.0
 41
17.39130435
 42
17.39130435
 50
34.48938865
 43
17.39130435
  0
INSERT
  8
SHR
  6
CONTINUOUS
  2
FLTRACE
 10
-9331.85451198
 20
-24744.20695687
 30
0.0
 41
17.39130435
 42
17.39130435
 50
34.48938865
 43
17.39130435
  0
INSERT
  8
SHR
  6
CONTINUOUS
  2
FLTRACE
 10
-9045.16544255
 20
-24547.24918414
 30
0.0
 41
17.39130435
 42
17.39130435
 50
34.48938865
 43
17.39130435
  0
INSERT
  8
SHR
  6
CONTINUOUS
  2
FLTRACE
 10
-8758.47637313
 20
-24350.29141141
 30
0.0
 41
17.39130435
 42
17.39130435
 50
34.48938865
 43
17.39130435
  0
INSERT
  8
SHR
  6
CONTINUOUS
  2
FLTRACE
 10
-8471.7873037
 20
-24153.33363868
 30
0.0
 41
17.39130435
 42
17.39130435
 50
34.48938865
 43
17.39130435
  0
INSERT
  8
SHR
  6
CONTINUOUS
  2
FLTRACE
 10
-8185.09823427
 20
-23956.37586596
 30
0.0
 41
17.39130435
 42
17.39130435
 50
34.48938865
 43
17.39130435
  0
INSERT
  8
SHR
  6
CONTINUOUS
  2
FLTRACE
 10
-7898.40916484
 20
-23759.41809323
 30
0.0
 41
17.39130435
 42
17.39130435
 50
34.48938865
 43
17.39130435
  0
INSERT
  8
SHR
  6
CONTINUOUS
  2
FLTRACE
 10
-7611.72009542
 20
-23562.4603205
 30
0.0
 41
17.39130435
 42
17.39130435
 50
34.48938865
 43
17.39130435
  0
INSERT
  8
SHR
  6
CONTINUOUS
  2
FLTRACE
 10
-7325.03102599
 20
-23365.50254777
 30
0.0
 41
17.39130435
 42
17.39130435
 50
34.48938865
 43
17.39130435
  0
INSERT
  8
SHR
  6
CONTINUOUS
  2
FLTRACE
 10
-7038.34195656
 20
-23168.54477504
 30
0.0
 41
17.39130435
 42
17.39130435
 50
34.48938865
 43
17.39130435
  0
INSERT
  8
SHR
  6
CONTINUOUS
  2
FLTRACE
 10
-6751.65288713
 20
-22971.58700231
 30
0.0
 41
17.39130435
 42
17.39130435
 50
34.48938865
 43
17.39130435
  0
INSERT
  8
SHR
  6
CONTINUOUS
  2
FLTRACE
 10
-6464.96381771
 20
-22774.62922958
 30
0.0
 41
17.39130435
 42
17.39130435
 50
34.48938865
 43
17.39130435
  0
INSERT
  8
SHR
  6
CONTINUOUS
  2
FLTRACE
 10
-6178.27474828
 20
-22577.67145685
 30
0.0
 41
17.39130435
 42
17.39130435
 50
34.48938865
 43
17.39130435
  0
INSERT
  8
SHR
  6
CONTINUOUS
  2
FLTRACE
 10
-5891.58567885
 20
-22380.71368413
 30
0.0
 41
17.39130435
 42
17.39130435
 50
34.48938865
 43
17.39130435
  0
INSERT
  8
SHR
  6
CONTINUOUS
  2
FLTRACE
 10
-5604.89660942
 20
-22183.7559114
 30
0.0
 41
17.39130435
 42
17.39130435
 50
34.48938865
 43
17.39130435
  0
INSERT
  8
SHR
  6
CONTINUOUS
  2
FLTRACE
 10
-5318.20754
 20
-21986.79813867
 30
0.0
 41
17.39130435
 42
17.39130435
 50
34.48938865
 43
17.39130435
  0
INSERT
  8
SHR
  6
CONTINUOUS
  2
FLTRACE
 10
-5031.51847057
 20
-21789.84036594
 30
0.0
 41
17.39130435
 42
17.39130435
 50
34.48938865
 43
17.39130435
  0
INSERT
  8
SHR
  6
CONTINUOUS
  2
FLTRACE
 10
-4744.82940114
 20
-21592.88259321
 30
0.0
 41
17.39130435
 42
17.39130435
 50
34.48938865
 43
17.39130435
  0
INSERT
  8
SHR
  6
CONTINUOUS
  2
FLTRACE
 10
-4458.14033171
 20
-21395.92482048
 30
0.0
 41
17.39130435
 42
17.39130435
 50
34.48938865
 43
17.39130435
  0
INSERT
  8
SHR
  6
CONTINUOUS
  2
FLTRACE
 10
-4171.45126229
 20
-21198.96704775
 30
0.0
 41
17.39130435
 42
17.39130435
 50
34.48938865
 43
17.39130435
  0
INSERT
  8
SHR
  6
CONTINUOUS
  2
FLTRACE
 10
5303.77865289
 20
-16950.48469217
 30
0.0
 41
17.39130435
 42
17.39130435
 50
21.54167928
 43
17.39130435
  0
INSERT
  8
SHR
  6
CONTINUOUS
  2
FLTRACE
 10
5627.309336
 20
-16822.77062148
 30
0.0
 41
17.39130435
 42
17.39130435
 50
21.54167928
 43
17.39130435
  0
INSERT
  8
SHR
  6
CONTINUOUS
  2
FLTRACE
 10
5951.17306791
 20
-16695.91277835
 30
0.0
 41
17.39130435
 42
17.39130435
 50
20.96763367
 43
17.39130435
  0
INSERT
  8
SHR
  6
CONTINUOUS
  2
FLTRACE
 10
6275.9670572
 20
-16571.44651269
 30
0.0
 41
17.39130435
 42
17.39130435
 50
20.96763367
 43
17.39130435
  0
INSERT
  8
SHR
  6
CONTINUOUS
  2
FLTRACE
 10
6600.7610465
 20
-16446.98024703
 30
0.0
 41
17.39130435
 42
17.39130435
 50
20.96763367
 43
17.39130435
  0
INSERT
  8
SHR
  6
CONTINUOUS
  2
FLTRACE
 10
6925.55503579
 20
-16322.51398137
 30
0.0
 41
17.39130435
 42
17.39130435
 50
20.96763367
 43
17.39130435
  0
INSERT
  8
SHR
  6
CONTINUOUS
  2
FLTRACE
 10
7250.34902508
 20
-16198.04771571
 30
0.0
 41
17.39130435
 42
17.39130435
 50
20.96763367
 43
17.39130435
  0
INSERT
  8
SHR
  6
CONTINUOUS
  2
FLTRACE
 10
7567.58134491
 20
-16055.45868009
 30
0.0
 41
17.39130435
 42
17.39130435
 50
24.32873795
 43
17.39130435
  0
INSERT
  8
SHR
  6
CONTINUOUS
  2
FLTRACE
 10
7884.51934769
 20
-15912.1642658
 30
0.0
 41
17.39130435
 42
17.39130435
 50
24.32873795
 43
17.39130435
  0
INSERT
  8
SHR
  6
CONTINUOUS
  2
FLTRACE
 10
8201.45735046
 20
-15768.86985152
 30
0.0
 41
17.39130435
 42
17.39130435
 50
24.32873795
 43
17.39130435
  0
INSERT
  8
SHR
  6
CONTINUOUS
  2
FLTRACE
 10
8518.39535324
 20
-15625.57543724
 30
0.0
 41
17.39130435
 42
17.39130435
 50
24.32873795
 43
17.39130435
  0
INSERT
  8
SHR
  6
CONTINUOUS
  2
FLTRACE
 10
8835.33335601
 20
-15482.28102295
 30
0.0
 41
17.39130435
 42
17.39130435
 50
24.32873795
 43
17.39130435
  0
INSERT
  8
SHR
  6
CONTINUOUS
  2
FLTRACE
 10
9152.27135878
 20
-15338.98660867
 30
0.0
 41
17.39130435
 42
17.39130435
 50
24.32873795
 43
17.39130435
  0
INSERT
  8
SHR
  6
CONTINUOUS
  2
FLTRACE
 10
-10314.37772961
 20
-19072.29972453
 30
0.0
 41
17.39130435
 42
17.39130435
 50
12.94406096
 43
17.39130435
  0
INSERT
  8
SHR
  6
CONTINUOUS
  2
FLTRACE
 10
-9975.3901732
 20
-18994.3868028
 30
0.0
 41
17.39130435
 42
17.39130435
 50
12.94406096
 43
17.39130435
  0
INSERT
  8
SHR
  6
CONTINUOUS
  2
FLTRACE
 10
-9636.4026168
 20
-18916.47388107
 30
0.0
 41
17.39130435
 42
17.39130435
 50
12.94406096
 43
17.39130435
  0
INSERT
  8
SHR
  6
CONTINUOUS
  2
FLTRACE
 10
-9297.4150604
 20
-18838.56095934
 30
0.0
 41
17.39130435
 42
17.39130435
 50
12.94406096
 43
17.39130435
  0
INSERT
  8
SHR
  6
CONTINUOUS
  2
FLTRACE
 10
-8958.427504
 20
-18760.64803761
 30
0.0
 41
17.39130435
 42
17.39130435
 50
12.94406096
 43
17.39130435
  0
INSERT
  8
SHR
  6
CONTINUOUS
  2
FLTRACE
 10
-8619.4399476
 20
-18682.73511588
 30
0.0
 41
17.39130435
 42
17.39130435
 50
12.94406096
 43
17.39130435
  0
INSERT
  8
SHR
  6
CONTINUOUS
  2
FLTRACE
 10
-8280.4523912
 20
-18604.82219416
 30
0.0
 41
17.39130435
 42
17.39130435
 50
12.94406096
 43
17.39130435
  0
INSERT
  8
SHR
  6
CONTINUOUS
  2
FLTRACE
 10
-7941.46483479
 20
-18526.90927243
 30
0.0
 41
17.39130435
 42
17.39130435
 50
12.94406096
 43
17.39130435
  0
INSERT
  8
SHR
  6
CONTINUOUS
  2
FLTRACE
 10
-7602.47727839
 20
-18448.9963507
 30
0.0
 41
17.39130435
 42
17.39130435
 50
12.94406096
 43
17.39130435
  0
INSERT
  8
SHR
  6
CONTINUOUS
  2
FLTRACE
 10
-7263.48972199
 20
-18371.08342897
 30
0.0
 41
17.39130435
 42
17.39130435
 50
12.94406096
 43
17.39130435
  0
INSERT
  8
SHR
  6
CONTINUOUS
  2
FLTRACE
 10
-6924.50216559
 20
-18293.17050724
 30
0.0
 41
17.39130435
 42
17.39130435
 50
12.94406096
 43
17.39130435
  0
INSERT
  8
SHR
  6
CONTINUOUS
  2
FLTRACE
 10
-6585.51460919
 20
-18215.25758552
 30
0.0
 41
17.39130435
 42
17.39130435
 50
12.94406096
 43
17.39130435
  0
INSERT
  8
SHR
  6
CONTINUOUS
  2
FLTRACE
 10
-6246.52705278
 20
-18137.34466379
 30
0.0
 41
17.39130435
 42
17.39130435
 50
12.94406096
 43
17.39130435
  0
INSERT
  8
SHR
  6
CONTINUOUS
  2
FLTRACE
 10
-5907.53949638
 20
-18059.43174206
 30
0.0
 41
17.39130435
 42
17.39130435
 50
12.94406096
 43
17.39130435
  0
INSERT
  8
SHR
  6
CONTINUOUS
  2
FLTRACE
 10
-5568.55193998
 20
-17981.51882033
 30
0.0
 41
17.39130435
 42
17.39130435
 50
12.94406096
 43
17.39130435
  0
INSERT
  8
SHR
  6
CONTINUOUS
  2
FLTRACE
 10
-5226.23371282
 20
-17922.60329531
 30
0.0
 41
17.39130435
 42
17.39130435
 50
6.94428382
 43
17.39130435
  0
INSERT
  8
SHR
  6
CONTINUOUS
  2
FLTRACE
 10
-4880.95921131
 20
-17880.54969409
 30
0.0
 41
17.39130435
 42
17.39130435
 50
6.94428382
 43
17.39130435
  0
INSERT
  8
SHR
  6
CONTINUOUS
  2
FLTRACE
 10
-4535.6847098
 20
-17838.49609288
 30
0.0
 41
17.39130435
 42
17.39130435
 50
6.94428382
 43
17.39130435
  0
INSERT
  8
SHR
  6
CONTINUOUS
  2
FLTRACE
 10
-4190.41020829
 20
-17796.44249166
 30
0.0
 41
17.39130435
 42
17.39130435
 50
6.94428382
 43
17.39130435
  0
INSERT
  8
SHR
  6
CONTINUOUS
  2
FLTRACE
 10
-3845.13570678
 20
-17754.38889045
 30
0.0
 41
17.39130435
 42
17.39130435
 50
6.94428382
 43
17.39130435
  0
INSERT
  8
SHR
  6
CONTINUOUS
  2
FLTRACE
 10
-3499.86120527
 20
-17712.33528923
 30
0.0
 41
17.39130435
 42
17.39130435
 50
6.94428382
 43
17.39130435
  0
INSERT
  8
SHR
  6
CONTINUOUS
  2
FLTRACE
 10
-3154.58670377
 20
-17670.28168802
 30
0.0
 41
17.39130435
 42
17.39130435
 50
6.94428382
 43
17.39130435
  0
INSERT
  8
SHR
  6
CONTINUOUS
  2
FLTRACE
 10
-2812.29936781
 20
-17609.0559233
 30
0.0
 41
17.39130435
 42
17.39130435
 50
10.76752515
 43
17.39130435
  0
INSERT
  8
SHR
  6
CONTINUOUS
  2
FLTRACE
 10
-2470.59735064
 20
-17544.07347775
 30
0.0
 41
17.39130435
 42
17.39130435
 50
10.76752515
 43
17.39130435
  0
INSERT
  8
SHR
  6
CONTINUOUS
  2
FLTRACE
 10
-2128.89533347
 20
-17479.0910322
 30
0.0
 41
17.39130435
 42
17.39130435
 50
10.76752515
 43
17.39130435
  0
INSERT
  8
SHR
  6
CONTINUOUS
  2
FLTRACE
 10
-1787.1933163
 20
-17414.10858666
 30
0.0
 41
17.39130435
 42
17.39130435
 50
10.76752515
 43
17.39130435
  0
INSERT
  8
SHR
  6
CONTINUOUS
  2
FLTRACE
 10
-1445.49129913
 20
-17349.12614111
 30
0.0
 41
17.39130435
 42
17.39130435
 50
10.76752515
 43
17.39130435
  0
INSERT
  8
SHR
  6
CONTINUOUS
  2
FLTRACE
 10
-1103.78928196
 20
-17284.14369556
 30
0.0
 41
17.39130435
 42
17.39130435
 50
10.76752515
 43
17.39130435
  0
INSERT
  8
SHR
  6
CONTINUOUS
  2
FLTRACE
 10
-762.08726479
 20
-17219.16125001
 30
0.0
 41
17.39130435
 42
17.39130435
 50
10.76752515
 43
17.39130435
  0
INSERT
  8
SHR
  6
CONTINUOUS
  2
FLTRACE
 10
-419.12623624
 20
-17161.23470116
 30
0.0
 41
17.39130435
 42
17.39130435
 50
9.46654853
 43
17.39130435
  0
INSERT
  8
SHR
  6
CONTINUOUS
  2
FLTRACE
 10
-76.0369164
 20
-17104.02713714
 30
0.0
 41
17.39130435
 42
17.39130435
 50
9.46654853
 43
17.39130435
  0
INSERT
  8
SHR
  6
CONTINUOUS
  2
FLTRACE
 10
267.05240344
 20
-17046.81957312
 30
0.0
 41
17.39130435
 42
17.39130435
 50
9.46654853
 43
17.39130435
  0
INSERT
  8
SHR
  6
CONTINUOUS
  2
FLTRACE
 10
610.14172328
 20
-16989.61200911
 30
0.0
 41
17.39130435
 42
17.39130435
 50
9.46654853
 43
17.39130435
  0
INSERT
  8
SHR
  6
CONTINUOUS
  2
FLTRACE
 10
953.23104311
 20
-16932.40444509
 30
0.0
 41
17.39130435
 42
17.39130435
 50
9.46654853
 43
17.39130435
  0
INSERT
  8
SHR
  6
CONTINUOUS
  2
FLTRACE
 10
1296.32036295
 20
-16875.19688107
 30
0.0
 41
17.39130435
 42
17.39130435
 50
9.46654853
 43
17.39130435
  0
INSERT
  8
SHR
  6
CONTINUOUS
  2
FLTRACE
 10
1639.40968279
 20
-16817.98931706
 30
0.0
 41
17.39130435
 42
17.39130435
 50
9.46654853
 43
17.39130435
  0
INSERT
  8
SHR
  6
CONTINUOUS
  2
FLTRACE
 10
1982.49900263
 20
-16760.78175304
 30
0.0
 41
17.39130435
 42
17.39130435
 50
9.46654853
 43
17.39130435
  0
INSERT
  8
SHR
  6
CONTINUOUS
  2
FLTRACE
 10
2325.58832246
 20
-16703.57418902
 30
0.0
 41
17.39130435
 42
17.39130435
 50
9.46654853
 43
17.39130435
  0
INSERT
  8
SHR
  6
CONTINUOUS
  2
FLTRACE
 10
2668.6776423
 20
-16646.36662501
 30
0.0
 41
17.39130435
 42
17.39130435
 50
9.46654853
 43
17.39130435
  0
INSERT
  8
SHR
  6
CONTINUOUS
  2
FLTRACE
 10
3011.58415889
 20
-16588.19764641
 30
0.0
 41
17.39130435
 42
17.39130435
 50
12.06485519
 43
17.39130435
  0
INSERT
  8
SHR
  6
CONTINUOUS
  2
FLTRACE
 10
3351.72733499
 20
-16515.49546956
 30
0.0
 41
17.39130435
 42
17.39130435
 50
12.06485519
 43
17.39130435
  0
INSERT
  8
SHR
  6
CONTINUOUS
  2
FLTRACE
 10
3691.8705111
 20
-16442.7932927
 30
0.0
 41
17.39130435
 42
17.39130435
 50
12.06485519
 43
17.39130435
  0
INSERT
  8
SHR
  6
CONTINUOUS
  2
FLTRACE
 10
4032.0136872
 20
-16370.09111585
 30
0.0
 41
17.39130435
 42
17.39130435
 50
12.06485519
 43
17.39130435
  0
INSERT
  8
SHR
  6
CONTINUOUS
  2
FLTRACE
 10
4372.1568633
 20
-16297.38893899
 30
0.0
 41
17.39130435
 42
17.39130435
 50
12.06485519
 43
17.39130435
  0
INSERT
  8
SHR
  6
CONTINUOUS
  2
FLTRACE
 10
4711.87378574
 20
-16222.75650712
 30
0.0
 41
17.39130435
 42
17.39130435
 50
12.84042811
 43
17.39130435
  0
INSERT
  8
SHR
  6
CONTINUOUS
  2
FLTRACE
 10
5051.00171135
 20
-16145.45685099
 30
0.0
 41
17.39130435
 42
17.39130435
 50
12.84042811
 43
17.39130435
  0
INSERT
  8
SHR
  6
CONTINUOUS
  2
FLTRACE
 10
5390.12963697
 20
-16068.15719487
 30
0.0
 41
17.39130435
 42
17.39130435
 50
12.84042811
 43
17.39130435
  0
INSERT
  8
SHR
  6
CONTINUOUS
  2
FLTRACE
 10
5729.25756258
 20
-15990.85753874
 30
0.0
 41
17.39130435
 42
17.39130435
 50
12.84042811
 43
17.39130435
  0
INSERT
  8
SHR
  6
CONTINUOUS
  2
FLTRACE
 10
6068.38548819
 20
-15913.55788261
 30
0.0
 41
17.39130435
 42
17.39130435
 50
12.84042811
 43
17.39130435
  0
INSERT
  8
SHR
  6
CONTINUOUS
  2
FLTRACE
 10
6407.5134138
 20
-15836.25822648
 30
0.0
 41
17.39130435
 42
17.39130435
 50
12.84042811
 43
17.39130435
  0
INSERT
  8
SHR
  6
CONTINUOUS
  2
FLTRACE
 10
6746.64133942
 20
-15758.95857036
 30
0.0
 41
17.39130435
 42
17.39130435
 50
12.84042811
 43
17.39130435
  0
INSERT
  8
SHR
  6
CONTINUOUS
  2
FLTRACE
 10
7085.76926503
 20
-15681.65891423
 30
0.0
 41
17.39130435
 42
17.39130435
 50
12.84042811
 43
17.39130435
  0
INSERT
  8
SHR
  6
CONTINUOUS
  2
FLTRACE
 10
7424.89719064
 20
-15604.3592581
 30
0.0
 41
17.39130435
 42
17.39130435
 50
12.84042811
 43
17.39130435
  0
INSERT
  8
SHR
  6
CONTINUOUS
  2
FLTRACE
 10
7764.02511625
 20
-15527.05960197
 30
0.0
 41
17.39130435
 42
17.39130435
 50
12.84042811
 43
17.39130435
  0
INSERT
  8
SHR
  6
CONTINUOUS
  2
FLTRACE
 10
8101.57093806
 20
-15443.1366068
 30
0.0
 41
17.39130435
 42
17.39130435
 50
14.02835497
 43
17.39130435
  0
INSERT
  8
SHR
  6
CONTINUOUS
  2
FLTRACE
 10
8439.02341922
 20
-15358.82284916
 30
0.0
 41
17.39130435
 42
17.39130435
 50
14.02835497
 43
17.39130435
  0
INSERT
  8
SHR
  6
CONTINUOUS
  2
FLTRACE
 10
8776.47590038
 20
-15274.50909153
 30
0.0
 41
17.39130435
 42
17.39130435
 50
14.02835497
 43
17.39130435
  0
INSERT
  8
SHR
  6
CONTINUOUS
  2
FLTRACE
 10
9113.92838154
 20
-15190.19533389
 30
0.0
 41
17.39130435
 42
17.39130435
 50
14.02835497
 43
17.39130435
  0
INSERT
  8
SHR
  6
CONTINUOUS
  2
FLTRACE
 10
9451.3808627
 20
-15105.88157625
 30
0.0
 41
17.39130435
 42
17.39130435
 50
14.02835497
 43
17.39130435
  0
INSERT
  8
SHR
  6
CONTINUOUS
  2
FLTRACE
 10
9788.83334386
 20
-15021.56781862
 30
0.0
 41
17.39130435
 42
17.39130435
 50
14.02835497
 43
17.39130435
  0
INSERT
  8
SHR
  6
CONTINUOUS
  2
FLTRACE
 10
10126.28582502
 20
-14937.25406098
 30
0.0
 41
17.39130435
 42
17.39130435
 50
14.02835497
 43
17.39130435
  0
INSERT
  8
SHR
  6
CONTINUOUS
  2
FLTRACE
 10
10463.28137472
 20
-14851.14573375
 30
0.0
 41
17.39130435
 42
17.39130435
 50
14.54174776
 43
17.39130435
  0
INSERT
  8
SHR
  6
CONTINUOUS
  2
FLTRACE
 10
10799.96483474
 20
-14763.8116939
 30
0.0
 41
17.39130435
 42
17.39130435
 50
14.54174776
 43
17.39130435
  0
INSERT
  8
SHR
  6
CONTINUOUS
  2
FLTRACE
 10
11136.64829476
 20
-14676.47765404
 30
0.0
 41
17.39130435
 42
17.39130435
 50
14.54174776
 43
17.39130435
  0
INSERT
  8
SHR
  6
CONTINUOUS
  2
FLTRACE
 10
11473.33175478
 20
-14589.14361419
 30
0.0
 41
17.39130435
 42
17.39130435
 50
14.54174776
 43
17.39130435
  0
INSERT
  8
SHR
  6
CONTINUOUS
  2
FLTRACE
 10
11810.68545785
 20
-14505.53849222
 30
0.0
 41
17.39130435
 42
17.39130435
 50
5.83755839
 43
17.39130435
  0
INSERT
  8
SHR
  6
CONTINUOUS
  2
FLTRACE
 10
12156.70780599
 20
-14470.16164449
 30
0.0
 41
17.39130435
 42
17.39130435
 50
5.83755839
 43
17.39130435
  0
INSERT
  8
SHR
  6
CONTINUOUS
  2
FLTRACE
 10
12502.73015413
 20
-14434.78479675
 30
0.0
 41
17.39130435
 42
17.39130435
 50
5.83755839
 43
17.39130435
  0
INSERT
  8
SHR
  6
CONTINUOUS
  2
FLTRACE
 10
12848.75250227
 20
-14399.40794902
 30
0.0
 41
17.39130435
 42
17.39130435
 50
5.83755839
 43
17.39130435
  0
INSERT
  8
SHR
  6
CONTINUOUS
  2
FLTRACE
 10
13194.77485041
 20
-14364.03110129
 30
0.0
 41
17.39130435
 42
17.39130435
 50
5.83755839
 43
17.39130435
  0
INSERT
  8
SHR
  6
CONTINUOUS
  2
FLTRACE
 10
13540.79719854
 20
-14328.65425355
 30
0.0
 41
17.39130435
 42
17.39130435
 50
5.83755839
 43
17.39130435
  0
INSERT
  8
SHR
  6
CONTINUOUS
  2
FLTRACE
 10
13886.81954668
 20
-14293.27740582
 30
0.0
 41
17.39130435
 42
17.39130435
 50
5.83755839
 43
17.39130435
  0
INSERT
  8
SHR
  6
CONTINUOUS
  2
FLTRACE
 10
14231.99835001
 20
-14250.68722664
 30
0.0
 41
17.39130435
 42
17.39130435
 50
7.50247133
 43
17.39130435
  0
INSERT
  8
SHR
  6
CONTINUOUS
  2
FLTRACE
 10
14576.846778
 20
-14205.27193761
 30
0.0
 41
17.39130435
 42
17.39130435
 50
7.50247133
 43
17.39130435
  0
INSERT
  8
SHR
  6
CONTINUOUS
  2
FLTRACE
 10
14921.695206
 20
-14159.85664858
 30
0.0
 41
17.39130435
 42
17.39130435
 50
7.50247133
 43
17.39130435
  0
INSERT
  8
SHR
  6
CONTINUOUS
  2
FLTRACE
 10
15266.54363399
 20
-14114.44135955
 30
0.0
 41
17.39130435
 42
17.39130435
 50
7.50247133
 43
17.39130435
  0
INSERT
  8
SHR
  6
CONTINUOUS
  2
FLTRACE
 10
15611.39206198
 20
-14069.02607052
 30
0.0
 41
17.39130435
 42
17.39130435
 50
7.50247133
 43
17.39130435
  0
INSERT
  8
SHR
  6
CONTINUOUS
  2
FLTRACE
 10
15956.24048998
 20
-14023.61078149
 30
0.0
 41
17.39130435
 42
17.39130435
 50
7.50247133
 43
17.39130435
  0
INSERT
  8
SHR
  6
CONTINUOUS
  2
FLTRACE
 10
16301.39011652
 20
-13980.61199693
 30
0.0
 41
17.39130435
 42
17.39130435
 50
6.70719505
 43
17.39130435
  0
INSERT
  8
SHR
  6
CONTINUOUS
  2
FLTRACE
 10
16646.83567844
 20
-13939.98749053
 30
0.0
 41
17.39130435
 42
17.39130435
 50
6.70719505
 43
17.39130435
  0
INSERT
  8
SHR
  6
CONTINUOUS
  2
FLTRACE
 10
16992.28124036
 20
-13899.36298414
 30
0.0
 41
17.39130435
 42
17.39130435
 50
6.70719505
 43
17.39130435
  0
INSERT
  8
SHR
  6
CONTINUOUS
  2
FLTRACE
 10
17331.65072489
 20
-13825.89804958
 30
0.0
 41
17.39130435
 42
17.39130435
 50
14.25725939
 43
17.39130435
  0
INSERT
  8
SHR
  6
CONTINUOUS
  2
FLTRACE
 10
17668.76366897
 20
-13740.23679989
 30
0.0
 41
17.39130435
 42
17.39130435
 50
14.25725939
 43
17.39130435
  0
INSERT
  8
SHR
  6
CONTINUOUS
  2
FLTRACE
 10
18005.87661306
 20
-13654.5755502
 30
0.0
 41
17.39130435
 42
17.39130435
 50
14.25725939
 43
17.39130435
  0
INSERT
  8
SHR
  6
CONTINUOUS
  2
FLTRACE
 10
18342.98955714
 20
-13568.91430051
 30
0.0
 41
17.39130435
 42
17.39130435
 50
14.25725939
 43
17.39130435
  0
INSERT
  8
SHR
  6
CONTINUOUS
  2
FLTRACE
 10
18680.10250123
 20
-13483.25305082
 30
0.0
 41
17.39130435
 42
17.39130435
 50
14.25725939
 43
17.39130435
  0
INSERT
  8
SHR
  6
CONTINUOUS
  2
FLTRACE
 10
19017.21544531
 20
-13397.59180114
 30
0.0
 41
17.39130435
 42
17.39130435
 50
14.25725939
 43
17.39130435
  0
INSERT
  8
SHR
  6
CONTINUOUS
  2
FLTRACE
 10
19354.3283894
 20
-13311.93055145
 30
0.0
 41
17.39130435
 42
17.39130435
 50
14.25725939
 43
17.39130435
  0
INSERT
  8
SHR
  6
CONTINUOUS
  2
FLTRACE
 10
19691.44133348
 20
-13226.26930176
 30
0.0
 41
17.39130435
 42
17.39130435
 50
14.25725939
 43
17.39130435
  0
INSERT
  8
SHR
  6
CONTINUOUS
  2
FLTRACE
 10
20028.55427757
 20
-13140.60805207
 30
0.0
 41
17.39130435
 42
17.39130435
 50
14.25725939
 43
17.39130435
  0
INSERT
  8
SHR
  6
CONTINUOUS
  2
FLTRACE
 10
20365.66722165
 20
-13054.94680238
 30
0.0
 41
17.39130435
 42
17.39130435
 50
14.25725939
 43
17.39130435
  0
INSERT
  8
SHR
  6
CONTINUOUS
  2
FLTRACE
 10
12764.32463555
 20
-12448.90402904
 30
0.0
 41
17.39130435
 42
17.39130435
 50
17.41281108
 43
17.39130435
  0
INSERT
  8
SHR
  6
CONTINUOUS
  2
FLTRACE
 10
13096.21104962
 20
-12344.8156295
 30
0.0
 41
17.39130435
 42
17.39130435
 50
17.41281108
 43
17.39130435
  0
INSERT
  8
SHR
  6
CONTINUOUS
  2
FLTRACE
 10
13428.0974637
 20
-12240.72722997
 30
0.0
 41
17.39130435
 42
17.39130435
 50
17.41281108
 43
17.39130435
  0
INSERT
  8
SHR
  6
CONTINUOUS
  2
FLTRACE
 10
13759.98387778
 20
-12136.63883043
 30
0.0
 41
17.39130435
 42
17.39130435
 50
17.41281108
 43
17.39130435
  0
INSERT
  8
SHR
  6
CONTINUOUS
  2
FLTRACE
 10
14091.87029186
 20
-12032.55043089
 30
0.0
 41
17.39130435
 42
17.39130435
 50
17.41281108
 43
17.39130435
  0
INSERT
  8
SHR
  6
CONTINUOUS
  2
FLTRACE
 10
14423.75670594
 20
-11928.46203136
 30
0.0
 41
17.39130435
 42
17.39130435
 50
17.41281108
 43
17.39130435
  0
INSERT
  8
SHR
  6
CONTINUOUS
  2
FLTRACE
 10
14755.64312001
 20
-11824.37363182
 30
0.0
 41
17.39130435
 42
17.39130435
 50
17.41281108
 43
17.39130435
  0
INSERT
  8
SHR
  6
CONTINUOUS
  2
FLTRACE
 10
16168.69788708
 20
-12702.02743142
 30
0.0
 41
17.39130435
 42
17.39130435
 50
330.7344072
 43
17.39130435
  0
INSERT
  8
SHR
  6
CONTINUOUS
  2
FLTRACE
 10
16472.12849527
 20
-12872.0652295
 30
0.0
 41
17.39130435
 42
17.39130435
 50
330.7344072
 43
17.39130435
  0
INSERT
  8
SHR
  6
CONTINUOUS
  2
FLTRACE
 10
16775.55910347
 20
-13042.10302759
 30
0.0
 41
17.39130435
 42
17.39130435
 50
330.7344072
 43
17.39130435
  0
INSERT
  8
SHR
  6
CONTINUOUS
  2
FLTRACE
 10
17078.98971166
 20
-13212.14082568
 30
0.0
 41
17.39130435
 42
17.39130435
 50
330.7344072
 43
17.39130435
  0
INSERT
  8
SHR
  6
CONTINUOUS
  2
FLTRACE
 10
17382.42031985
 20
-13382.17862377
 30
0.0
 41
17.39130435
 42
17.39130435
 50
330.7344072
 43
17.39130435
  0
INSERT
  8
SHR
  6
CONTINUOUS
  2
FLTRACE
 10
17685.85092805
 20
-13552.21642186
 30
0.0
 41
17.39130435
 42
17.39130435
 50
330.7344072
 43
17.39130435
  0
INSERT
  8
SHR
  6
CONTINUOUS
  2
FLTRACE
 10
18018.13726947
 20
-13640.95284318
 30
0.0
 41
17.39130435
 42
17.39130435
 50
350.1836985
 43
17.39130435
  0
INSERT
  8
SHR
  6
CONTINUOUS
  2
FLTRACE
 10
18360.87098476
 20
-13700.25366247
 30
0.0
 41
17.39130435
 42
17.39130435
 50
350.1836985
 43
17.39130435
  0
INSERT
  8
SHR
  6
CONTINUOUS
  2
FLTRACE
 10
18703.60470005
 20
-13759.55448177
 30
0.0
 41
17.39130435
 42
17.39130435
 50
350.1836985
 43
17.39130435
  0
INSERT
  8
SHR
  6
CONTINUOUS
  2
FLTRACE
 10
19046.33841535
 20
-13818.85530107
 30
0.0
 41
17.39130435
 42
17.39130435
 50
350.1836985
 43
17.39130435
  0
INSERT
  8
SHR
  6
CONTINUOUS
  2
FLTRACE
 10
19389.07213064
 20
-13878.15612037
 30
0.0
 41
17.39130435
 42
17.39130435
 50
350.1836985
 43
17.39130435
  0
INSERT
  8
SHR
  6
CONTINUOUS
  2
FLTRACE
 10
19731.80584593
 20
-13937.45693966
 30
0.0
 41
17.39130435
 42
17.39130435
 50
350.1836985
 43
17.39130435
  0
INSERT
  8
SHR
  6
CONTINUOUS
  2
FLTRACE
 10
20074.53956122
 20
-13996.75775896
 30
0.0
 41
17.39130435
 42
17.39130435
 50
350.1836985
 43
17.39130435
  0
INSERT
  8
SHR
  6
CONTINUOUS
  2
FLTRACE
 10
13779.40366957
 20
-14313.87070631
 30
0.0
 41
17.39130435
 42
17.39130435
 50
340.59302961
 43
17.39130435
  0
INSERT
  8
SHR
  6
CONTINUOUS
  2
FLTRACE
 10
14107.4670579
 20
-14429.4449249
 30
0.0
 41
17.39130435
 42
17.39130435
 50
340.59302961
 43
17.39130435
  0
INSERT
  8
SHR
  6
CONTINUOUS
  2
FLTRACE
 10
14435.53044624
 20
-14545.01914349
 30
0.0
 41
17.39130435
 42
17.39130435
 50
340.59302961
 43
17.39130435
  0
INSERT
  8
SHR
  6
CONTINUOUS
  2
FLTRACE
 10
14763.59383457
 20
-14660.59336208
 30
0.0
 41
17.39130435
 42
17.39130435
 50
340.59302961
 43
17.39130435
  0
INSERT
  8
SHR
  6
CONTINUOUS
  2
FLTRACE
 10
15091.6572229
 20
-14776.16758067
 30
0.0
 41
17.39130435
 42
17.39130435
 50
340.59302961
 43
17.39130435
  0
INSERT
  8
SHR
  6
CONTINUOUS
  2
FLTRACE
 10
15419.72061124
 20
-14891.74179926
 30
0.0
 41
17.39130435
 42
17.39130435
 50
340.59302961
 43
17.39130435
  0
INSERT
  8
SHR
  6
CONTINUOUS
  2
FLTRACE
 10
15747.78399957
 20
-15007.31601785
 30
0.0
 41
17.39130435
 42
17.39130435
 50
340.59302961
 43
17.39130435
  0
INSERT
  8
SHR
  6
CONTINUOUS
  2
FLTRACE
 10
16075.8473879
 20
-15122.89023644
 30
0.0
 41
17.39130435
 42
17.39130435
 50
340.59302961
 43
17.39130435
  0
INSERT
  8
SHR
  6
CONTINUOUS
  2
FLTRACE
 10
16399.76749348
 20
-15249.55256443
 30
0.0
 41
17.39130435
 42
17.39130435
 50
338.42865569
 43
17.39130435
  0
INSERT
  8
SHR
  6
CONTINUOUS
  2
FLTRACE
 10
16723.23200895
 20
-15377.43412681
 30
0.0
 41
17.39130435
 42
17.39130435
 50
338.42865569
 43
17.39130435
  0
INSERT
  8
SHR
  6
CONTINUOUS
  2
FLTRACE
 10
17064.19184373
 20
-15443.38103355
 30
0.0
 41
17.39130435
 42
17.39130435
 50
350.02346438
 43
17.39130435
  0
INSERT
  8
SHR
  6
CONTINUOUS
  2
FLTRACE
 10
17406.75837754
 20
-15503.64011324
 30
0.0
 41
17.39130435
 42
17.39130435
 50
350.02346438
 43
17.39130435
  0
INSERT
  8
SHR
  6
CONTINUOUS
  2
FLTRACE
 10
17749.32491134
 20
-15563.89919292
 30
0.0
 41
17.39130435
 42
17.39130435
 50
350.02346438
 43
17.39130435
  0
INSERT
  8
SHR
  6
CONTINUOUS
  2
FLTRACE
 10
18091.89144515
 20
-15624.1582726
 30
0.0
 41
17.39130435
 42
17.39130435
 50
350.02346438
 43
17.39130435
  0
INSERT
  8
SHR
  6
CONTINUOUS
  2
FLTRACE
 10
12958.23836914
 20
-15044.87363558
 30
0.0
 41
17.39130435
 42
17.39130435
 50
356.71793916
 43
17.39130435
  0
INSERT
  8
SHR
  6
CONTINUOUS
  2
FLTRACE
 10
13305.49394856
 20
-15064.78718197
 30
0.0
 41
17.39130435
 42
17.39130435
 50
356.71793916
 43
17.39130435
  0
INSERT
  8
SHR
  6
CONTINUOUS
  2
FLTRACE
 10
13652.74952798
 20
-15084.70072836
 30
0.0
 41
17.39130435
 42
17.39130435
 50
356.71793916
 43
17.39130435
  0
INSERT
  8
SHR
  6
CONTINUOUS
  2
FLTRACE
 10
14000.0051074
 20
-15104.61427475
 30
0.0
 41
17.39130435
 42
17.39130435
 50
356.71793916
 43
17.39130435
  0
INSERT
  8
SHR
  6
CONTINUOUS
  2
FLTRACE
 10
14347.26068682
 20
-15124.52782114
 30
0.0
 41
17.39130435
 42
17.39130435
 50
356.71793916
 43
17.39130435
  0
INSERT
  8
SHR
  6
CONTINUOUS
  2
FLTRACE
 10
14694.51626624
 20
-15144.44136752
 30
0.0
 41
17.39130435
 42
17.39130435
 50
356.71793916
 43
17.39130435
  0
INSERT
  8
SHR
  6
CONTINUOUS
  2
FLTRACE
 10
15041.77184566
 20
-15164.35491391
 30
0.0
 41
17.39130435
 42
17.39130435
 50
356.71793916
 43
17.39130435
  0
INSERT
  8
SHR
  6
CONTINUOUS
  2
FLTRACE
 10
15389.02742508
 20
-15184.2684603
 30
0.0
 41
17.39130435
 42
17.39130435
 50
356.71793916
 43
17.39130435
  0
INSERT
  8
SHR
  6
CONTINUOUS
  2
FLTRACE
 10
12396.28428403
 20
-14173.48904925
 30
0.0
 41
17.39130435
 42
17.39130435
 50
25.43260832
 43
17.39130435
  0
INSERT
  8
SHR
  6
CONTINUOUS
  2
FLTRACE
 10
12710.40290313
 20
-14024.11542406
 30
0.0
 41
17.39130435
 42
17.39130435
 50
25.43260832
 43
17.39130435
  0
INSERT
  8
SHR
  6
CONTINUOUS
  2
FLTRACE
 10
13024.52152223
 20
-13874.74179887
 30
0.0
 41
17.39130435
 42
17.39130435
 50
25.43260832
 43
17.39130435
  0
INSERT
  8
SHR
  6
CONTINUOUS
  2
FLTRACE
 10
13319.35619878
 20
-13691.74353872
 30
0.0
 41
17.39130435
 42
17.39130435
 50
34.23648355
 43
17.39130435
  0
INSERT
  8
SHR
  6
CONTINUOUS
  2
FLTRACE
 10
13606.9118494
 20
-13496.05313383
 30
0.0
 41
17.39130435
 42
17.39130435
 50
34.23648355
 43
17.39130435
  0
INSERT
  8
SHR
  6
CONTINUOUS
  2
FLTRACE
 10
13894.46750003
 20
-13300.36272895
 30
0.0
 41
17.39130435
 42
17.39130435
 50
34.23648355
 43
17.39130435
  0
INSERT
  8
SHR
  6
CONTINUOUS
  2
FLTRACE
 10
14193.91852591
 20
-13123.48513916
 30
0.0
 41
17.39130435
 42
17.39130435
 50
30.37399203
 43
17.39130435
  0
INSERT
  8
SHR
  6
CONTINUOUS
  2
FLTRACE
 10
14680.70678847
 20
-12734.03153976
 30
0.0
 41
17.39130435
 42
17.39130435
 50
12.31766218
 43
17.39130435
  0
INSERT
  8
SHR
  6
CONTINUOUS
  2
FLTRACE
 10
15020.52586971
 20
-12659.82925683
 30
0.0
 41
17.39130435
 42
17.39130435
 50
12.31766218
 43
17.39130435
  0
INSERT
  8
SHR
  6
CONTINUOUS
  2
FLTRACE
 10
15360.34495096
 20
-12585.62697391
 30
0.0
 41
17.39130435
 42
17.39130435
 50
12.31766218
 43
17.39130435
  0
INSERT
  8
SHR
  6
CONTINUOUS
  2
FLTRACE
 10
15700.1640322
 20
-12511.42469098
 30
0.0
 41
17.39130435
 42
17.39130435
 50
12.31766218
 43
17.39130435
  0
INSERT
  8
SHR
  6
CONTINUOUS
  2
FLTRACE
 10
16039.98311344
 20
-12437.22240805
 30
0.0
 41
17.39130435
 42
17.39130435
 50
12.31766218
 43
17.39130435
  0
INSERT
  8
SHR
  6
CONTINUOUS
  2
FLTRACE
 10
16379.80219468
 20
-12363.02012512
 30
0.0
 41
17.39130435
 42
17.39130435
 50
12.31766218
 43
17.39130435
  0
INSERT
  8
SHR
  6
CONTINUOUS
  2
FLTRACE
 10
15371.27712546
 20
-16187.56577677
 30
0.0
 41
17.39130435
 42
17.39130435
 50
336.88250986
 43
17.39130435
  0
INSERT
  8
SHR
  6
CONTINUOUS
  2
FLTRACE
 10
15691.17336525
 20
-16324.12851889
 30
0.0
 41
17.39130435
 42
17.39130435
 50
336.88250986
 43
17.39130435
  0
INSERT
  8
SHR
  6
CONTINUOUS
  2
FLTRACE
 10
16011.06960504
 20
-16460.69126101
 30
0.0
 41
17.39130435
 42
17.39130435
 50
336.88250986
 43
17.39130435
  0
INSERT
  8
SHR
  6
CONTINUOUS
  2
FLTRACE
 10
16330.96584483
 20
-16597.25400313
 30
0.0
 41
17.39130435
 42
17.39130435
 50
336.88250986
 43
17.39130435
  0
INSERT
  8
SHR
  6
CONTINUOUS
  2
FLTRACE
 10
16650.86208462
 20
-16733.81674524
 30
0.0
 41
17.39130435
 42
17.39130435
 50
336.88250986
 43
17.39130435
  0
INSERT
  8
SHR
  6
CONTINUOUS
  2
FLTRACE
 10
16970.75832441
 20
-16870.37948736
 30
0.0
 41
17.39130435
 42
17.39130435
 50
336.88250986
 43
17.39130435
  0
INSERT
  8
SHR
  6
CONTINUOUS
  2
FLTRACE
 10
17290.6545642
 20
-17006.94222948
 30
0.0
 41
17.39130435
 42
17.39130435
 50
336.88250986
 43
17.39130435
  0
INSERT
  8
SHR
  6
CONTINUOUS
  2
FLTRACE
 10
17614.6812174
 20
-17133.10806786
 30
0.0
 41
17.39130435
 42
17.39130435
 50
339.78427259
 43
17.39130435
  0
INSERT
  8
SHR
  6
CONTINUOUS
  2
FLTRACE
 10
17941.08059296
 20
-17253.30138881
 30
0.0
 41
17.39130435
 42
17.39130435
 50
339.78427259
 43
17.39130435
  0
INSERT
  8
SHR
  6
CONTINUOUS
  2
FLTRACE
 10
18267.47996852
 20
-17373.49470976
 30
0.0
 41
17.39130435
 42
17.39130435
 50
339.78427259
 43
17.39130435
  0
INSERT
  8
SHR
  6
CONTINUOUS
  2
FLTRACE
 10
18593.87934408
 20
-17493.68803071
 30
0.0
 41
17.39130435
 42
17.39130435
 50
339.78427259
 43
17.39130435
  0
INSERT
  8
SHR
  6
CONTINUOUS
  2
FLTRACE
 10
18920.27871964
 20
-17613.88135166
 30
0.0
 41
17.39130435
 42
17.39130435
 50
339.78427259
 43
17.39130435
  0
INSERT
  8
SHR
  6
CONTINUOUS
  2
FLTRACE
 10
19246.6780952
 20
-17734.07467261
 30
0.0
 41
17.39130435
 42
17.39130435
 50
339.78427259
 43
17.39130435
  0
INSERT
  8
SHR
  6
CONTINUOUS
  2
FLTRACE
 10
19573.07747076
 20
-17854.26799356
 30
0.0
 41
17.39130435
 42
17.39130435
 50
339.78427259
 43
17.39130435
  0
INSERT
  8
SHR
  6
CONTINUOUS
  2
FLTRACE
 10
19899.47684633
 20
-17974.46131451
 30
0.0
 41
17.39130435
 42
17.39130435
 50
339.78427259
 43
17.39130435
  0
INSERT
  8
SHR
  6
CONTINUOUS
  2
FLTRACE
 10
20225.87622189
 20
-18094.65463546
 30
0.0
 41
17.39130435
 42
17.39130435
 50
339.78427259
 43
17.39130435
  0
INSERT
  8
SHR
  6
CONTINUOUS
  2
FLTRACE
 10
13992.11516305
 20
-16781.09651337
 30
0.0
 41
17.39130435
 42
17.39130435
 50
335.0904931
 43
17.39130435
  0
INSERT
  8
SHR
  6
CONTINUOUS
  2
FLTRACE
 10
14307.5844294
 20
-16927.59609959
 30
0.0
 41
17.39130435
 42
17.39130435
 50
335.0904931
 43
17.39130435
  0
INSERT
  8
SHR
  6
CONTINUOUS
  2
FLTRACE
 10
14623.05369574
 20
-17074.0956858
 30
0.0
 41
17.39130435
 42
17.39130435
 50
335.0904931
 43
17.39130435
  0
INSERT
  8
SHR
  6
CONTINUOUS
  2
FLTRACE
 10
14938.52296208
 20
-17220.59527202
 30
0.0
 41
17.39130435
 42
17.39130435
 50
335.0904931
 43
17.39130435
  0
INSERT
  8
SHR
  6
CONTINUOUS
  2
FLTRACE
 10
15253.99222842
 20
-17367.09485823
 30
0.0
 41
17.39130435
 42
17.39130435
 50
335.0904931
 43
17.39130435
  0
INSERT
  8
SHR
  6
CONTINUOUS
  2
FLTRACE
 10
15569.46149476
 20
-17513.59444445
 30
0.0
 41
17.39130435
 42
17.39130435
 50
335.0904931
 43
17.39130435
  0
INSERT
  8
SHR
  6
CONTINUOUS
  2
FLTRACE
 10
15884.9307611
 20
-17660.09403066
 30
0.0
 41
17.39130435
 42
17.39130435
 50
335.0904931
 43
17.39130435
  0
INSERT
  8
SHR
  6
CONTINUOUS
  2
FLTRACE
 10
16200.40002745
 20
-17806.59361688
 30
0.0
 41
17.39130435
 42
17.39130435
 50
335.0904931
 43
17.39130435
  0
INSERT
  8
SHR
  6
CONTINUOUS
  2
FLTRACE
 10
16515.86929379
 20
-17953.09320309
 30
0.0
 41
17.39130435
 42
17.39130435
 50
335.0904931
 43
17.39130435
  0
INSERT
  8
SHR
  6
CONTINUOUS
  2
FLTRACE
 10
16831.33856013
 20
-18099.59278931
 30
0.0
 41
17.39130435
 42
17.39130435
 50
335.0904931
 43
17.39130435
  0
INSERT
  8
SHR
  6
CONTINUOUS
  2
FLTRACE
 10
17146.80782647
 20
-18246.09237552
 30
0.0
 41
17.39130435
 42
17.39130435
 50
335.0904931
 43
17.39130435
  0
INSERT
  8
SHR
  6
CONTINUOUS
  2
FLTRACE
 10
17462.27709281
 20
-18392.59196174
 30
0.0
 41
17.39130435
 42
17.39130435
 50
335.0904931
 43
17.39130435
  0
INSERT
  8
SHR
  6
CONTINUOUS
  2
FLTRACE
 10
17777.74635915
 20
-18539.09154796
 30
0.0
 41
17.39130435
 42
17.39130435
 50
335.0904931
 43
17.39130435
  0
INSERT
  8
SHR
  6
CONTINUOUS
  2
FLTRACE
 10
18093.2156255
 20
-18685.59113417
 30
0.0
 41
17.39130435
 42
17.39130435
 50
335.0904931
 43
17.39130435
  0
INSERT
  8
SHR
  6
CONTINUOUS
  2
FLTRACE
 10
18408.68489184
 20
-18832.09072039
 30
0.0
 41
17.39130435
 42
17.39130435
 50
335.0904931
 43
17.39130435
  0
INSERT
  8
SHR
  6
CONTINUOUS
  2
FLTRACE
 10
18724.15415818
 20
-18978.5903066
 30
0.0
 41
17.39130435
 42
17.39130435
 50
335.0904931
 43
17.39130435
  0
INSERT
  8
SHR
  6
CONTINUOUS
  2
FLTRACE
 10
19039.62342452
 20
-19125.08989282
 30
0.0
 41
17.39130435
 42
17.39130435
 50
335.0904931
 43
17.39130435
  0
INSERT
  8
SHR
  6
CONTINUOUS
  2
FLTRACE
 10
19355.09269086
 20
-19271.58947903
 30
0.0
 41
17.39130435
 42
17.39130435
 50
335.0904931
 43
17.39130435
  0
INSERT
  8
SHR
  6
CONTINUOUS
  2
FLTRACE
 10
19670.5619572
 20
-19418.08906525
 30
0.0
 41
17.39130435
 42
17.39130435
 50
335.0904931
 43
17.39130435
  0
INSERT
  8
SHR
  6
CONTINUOUS
  2
FLTRACE
 10
19986.03122355
 20
-19564.58865146
 30
0.0
 41
17.39130435
 42
17.39130435
 50
335.0904931
 43
17.39130435
  0
INSERT
  8
SHR
  6
CONTINUOUS
  2
FLTRACE
 10
14183.0608293
 20
-18096.17441996
 30
0.0
 41
17.39130435
 42
17.39130435
 50
335.09593388
 43
17.39130435
  0
INSERT
  8
SHR
  6
CONTINUOUS
  2
FLTRACE
 10
14498.54400574
 20
-18242.64404872
 30
0.0
 41
17.39130435
 42
17.39130435
 50
335.09593388
 43
17.39130435
  0
INSERT
  8
SHR
  6
CONTINUOUS
  2
FLTRACE
 10
14814.02718218
 20
-18389.11367749
 30
0.0
 41
17.39130435
 42
17.39130435
 50
335.09593388
 43
17.39130435
  0
INSERT
  8
SHR
  6
CONTINUOUS
  2
FLTRACE
 10
15129.51035862
 20
-18535.58330625
 30
0.0
 41
17.39130435
 42
17.39130435
 50
335.09593388
 43
17.39130435
  0
INSERT
  8
SHR
  6
CONTINUOUS
  2
FLTRACE
 10
15444.99353507
 20
-18682.05293501
 30
0.0
 41
17.39130435
 42
17.39130435
 50
335.09593388
 43
17.39130435
  0
INSERT
  8
SHR
  6
CONTINUOUS
  2
FLTRACE
 10
15760.47671151
 20
-18828.52256377
 30
0.0
 41
17.39130435
 42
17.39130435
 50
335.09593388
 43
17.39130435
  0
INSERT
  8
SHR
  6
CONTINUOUS
  2
FLTRACE
 10
16075.95988795
 20
-18974.99219253
 30
0.0
 41
17.39130435
 42
17.39130435
 50
335.09593388
 43
17.39130435
  0
INSERT
  8
SHR
  6
CONTINUOUS
  2
FLTRACE
 10
16391.44306439
 20
-19121.46182129
 30
0.0
 41
17.39130435
 42
17.39130435
 50
335.09593388
 43
17.39130435
  0
INSERT
  8
SHR
  6
CONTINUOUS
  2
FLTRACE
 10
16706.92624083
 20
-19267.93145006
 30
0.0
 41
17.39130435
 42
17.39130435
 50
335.09593388
 43
17.39130435
  0
INSERT
  8
SHR
  6
CONTINUOUS
  2
FLTRACE
 10
17022.40941728
 20
-19414.40107882
 30
0.0
 41
17.39130435
 42
17.39130435
 50
335.09593388
 43
17.39130435
  0
INSERT
  8
SHR
  6
CONTINUOUS
  2
FLTRACE
 10
17337.89259372
 20
-19560.87070758
 30
0.0
 41
17.39130435
 42
17.39130435
 50
335.09593388
 43
17.39130435
  0
INSERT
  8
SHR
  6
CONTINUOUS
  2
FLTRACE
 10
17653.37577016
 20
-19707.34033634
 30
0.0
 41
17.39130435
 42
17.39130435
 50
335.09593388
 43
17.39130435
  0
INSERT
  8
SHR
  6
CONTINUOUS
  2
FLTRACE
 10
17968.8589466
 20
-19853.8099651
 30
0.0
 41
17.39130435
 42
17.39130435
 50
335.09593388
 43
17.39130435
  0
INSERT
  8
SHR
  6
CONTINUOUS
  2
FLTRACE
 10
18284.34212304
 20
-20000.27959386
 30
0.0
 41
17.39130435
 42
17.39130435
 50
335.09593388
 43
17.39130435
  0
INSERT
  8
SHR
  6
CONTINUOUS
  2
FLTRACE
 10
18599.82529949
 20
-20146.74922262
 30
0.0
 41
17.39130435
 42
17.39130435
 50
335.09593388
 43
17.39130435
  0
INSERT
  8
SHR
  6
CONTINUOUS
  2
FLTRACE
 10
18915.30847593
 20
-20293.21885139
 30
0.0
 41
17.39130435
 42
17.39130435
 50
335.09593388
 43
17.39130435
  0
INSERT
  8
SHR
  6
CONTINUOUS
  2
FLTRACE
 10
19230.79165237
 20
-20439.68848015
 30
0.0
 41
17.39130435
 42
17.39130435
 50
335.09593388
 43
17.39130435
  0
INSERT
  8
SHR
  6
CONTINUOUS
  2
FLTRACE
 10
19546.27482881
 20
-20586.15810891
 30
0.0
 41
17.39130435
 42
17.39130435
 50
335.09593388
 43
17.39130435
  0
INSERT
  8
SHR
  6
CONTINUOUS
  2
FLTRACE
 10
19861.75800525
 20
-20732.62773767
 30
0.0
 41
17.39130435
 42
17.39130435
 50
335.09593388
 43
17.39130435
  0
INSERT
  8
SHR
  6
CONTINUOUS
  2
FLTRACE
 10
20177.2411817
 20
-20879.09736643
 30
0.0
 41
17.39130435
 42
17.39130435
 50
335.09593388
 43
17.39130435
  0
INSERT
  8
SHR
  6
CONTINUOUS
  2
FLTRACE
 10
8857.35864592
 20
-16442.14391134
 30
0.0
 41
17.39130435
 42
17.39130435
 50
334.70499615
 43
17.39130435
  0
INSERT
  8
SHR
  6
CONTINUOUS
  2
FLTRACE
 10
9171.83510209
 20
-16590.76270315
 30
0.0
 41
17.39130435
 42
17.39130435
 50
334.70499615
 43
17.39130435
  0
INSERT
  8
SHR
  6
CONTINUOUS
  2
FLTRACE
 10
9486.31155827
 20
-16739.38149497
 30
0.0
 41
17.39130435
 42
17.39130435
 50
334.70499615
 43
17.39130435
  0
INSERT
  8
SHR
  6
CONTINUOUS
  2
FLTRACE
 10
9800.78801444
 20
-16888.00028678
 30
0.0
 41
17.39130435
 42
17.39130435
 50
334.70499615
 43
17.39130435
  0
INSERT
  8
SHR
  6
CONTINUOUS
  2
FLTRACE
 10
10115.26447061
 20
-17036.61907859
 30
0.0
 41
17.39130435
 42
17.39130435
 50
334.70499615
 43
17.39130435
  0
INSERT
  8
SHR
  6
CONTINUOUS
  2
FLTRACE
 10
10429.74092679
 20
-17185.23787041
 30
0.0
 41
17.39130435
 42
17.39130435
 50
334.70499615
 43
17.39130435
  0
INSERT
  8
SHR
  6
CONTINUOUS
  2
FLTRACE
 10
10744.21738296
 20
-17333.85666222
 30
0.0
 41
17.39130435
 42
17.39130435
 50
334.70499615
 43
17.39130435
  0
INSERT
  8
SHR
  6
CONTINUOUS
  2
FLTRACE
 10
11058.69383914
 20
-17482.47545403
 30
0.0
 41
17.39130435
 42
17.39130435
 50
334.70499615
 43
17.39130435
  0
INSERT
  8
SHR
  6
CONTINUOUS
  2
FLTRACE
 10
11373.17029531
 20
-17631.09424585
 30
0.0
 41
17.39130435
 42
17.39130435
 50
334.70499615
 43
17.39130435
  0
INSERT
  8
SHR
  6
CONTINUOUS
  2
FLTRACE
 10
11687.64675148
 20
-17779.71303766
 30
0.0
 41
17.39130435
 42
17.39130435
 50
334.70499615
 43
17.39130435
  0
INSERT
  8
SHR
  6
CONTINUOUS
  2
FLTRACE
 10
12002.12320766
 20
-17928.33182947
 30
0.0
 41
17.39130435
 42
17.39130435
 50
334.70499615
 43
17.39130435
  0
INSERT
  8
SHR
  6
CONTINUOUS
  2
FLTRACE
 10
12316.59966383
 20
-18076.95062129
 30
0.0
 41
17.39130435
 42
17.39130435
 50
334.70499615
 43
17.39130435
  0
INSERT
  8
SHR
  6
CONTINUOUS
  2
FLTRACE
 10
12631.07612
 20
-18225.5694131
 30
0.0
 41
17.39130435
 42
17.39130435
 50
334.70499615
 43
17.39130435
  0
INSERT
  8
SHR
  6
CONTINUOUS
  2
FLTRACE
 10
12945.55257618
 20
-18374.18820491
 30
0.0
 41
17.39130435
 42
17.39130435
 50
334.70499615
 43
17.39130435
  0
INSERT
  8
SHR
  6
CONTINUOUS
  2
FLTRACE
 10
13260.02903235
 20
-18522.80699673
 30
0.0
 41
17.39130435
 42
17.39130435
 50
334.70499615
 43
17.39130435
  0
INSERT
  8
SHR
  6
CONTINUOUS
  2
FLTRACE
 10
13574.50548852
 20
-18671.42578854
 30
0.0
 41
17.39130435
 42
17.39130435
 50
334.70499615
 43
17.39130435
  0
INSERT
  8
SHR
  6
CONTINUOUS
  2
FLTRACE
 10
13888.9819447
 20
-18820.04458036
 30
0.0
 41
17.39130435
 42
17.39130435
 50
334.70499615
 43
17.39130435
  0
INSERT
  8
SHR
  6
CONTINUOUS
  2
FLTRACE
 10
14203.45840087
 20
-18968.66337217
 30
0.0
 41
17.39130435
 42
17.39130435
 50
334.70499615
 43
17.39130435
  0
INSERT
  8
SHR
  6
CONTINUOUS
  2
FLTRACE
 10
14517.93485704
 20
-19117.28216398
 30
0.0
 41
17.39130435
 42
17.39130435
 50
334.70499615
 43
17.39130435
  0
INSERT
  8
SHR
  6
CONTINUOUS
  2
FLTRACE
 10
14832.41131322
 20
-19265.9009558
 30
0.0
 41
17.39130435
 42
17.39130435
 50
334.70499615
 43
17.39130435
  0
INSERT
  8
SHR
  6
CONTINUOUS
  2
FLTRACE
 10
15146.88776939
 20
-19414.51974761
 30
0.0
 41
17.39130435
 42
17.39130435
 50
334.70499615
 43
17.39130435
  0
INSERT
  8
SHR
  6
CONTINUOUS
  2
FLTRACE
 10
15461.36422556
 20
-19563.13853942
 30
0.0
 41
17.39130435
 42
17.39130435
 50
334.70499615
 43
17.39130435
  0
INSERT
  8
SHR
  6
CONTINUOUS
  2
FLTRACE
 10
15775.84068174
 20
-19711.75733124
 30
0.0
 41
17.39130435
 42
17.39130435
 50
334.70499615
 43
17.39130435
  0
INSERT
  8
SHR
  6
CONTINUOUS
  2
FLTRACE
 10
16090.31713791
 20
-19860.37612305
 30
0.0
 41
17.39130435
 42
17.39130435
 50
334.70499615
 43
17.39130435
  0
INSERT
  8
SHR
  6
CONTINUOUS
  2
FLTRACE
 10
16404.79359408
 20
-20008.99491486
 30
0.0
 41
17.39130435
 42
17.39130435
 50
334.70499615
 43
17.39130435
  0
INSERT
  8
SHR
  6
CONTINUOUS
  2
FLTRACE
 10
16719.27005026
 20
-20157.61370668
 30
0.0
 41
17.39130435
 42
17.39130435
 50
334.70499615
 43
17.39130435
  0
INSERT
  8
SHR
  6
CONTINUOUS
  2
FLTRACE
 10
17033.74650643
 20
-20306.23249849
 30
0.0
 41
17.39130435
 42
17.39130435
 50
334.70499615
 43
17.39130435
  0
INSERT
  8
SHR
  6
CONTINUOUS
  2
FLTRACE
 10
17348.2229626
 20
-20454.8512903
 30
0.0
 41
17.39130435
 42
17.39130435
 50
334.70499615
 43
17.39130435
  0
INSERT
  8
SHR
  6
CONTINUOUS
  2
FLTRACE
 10
17662.69941878
 20
-20603.47008212
 30
0.0
 41
17.39130435
 42
17.39130435
 50
334.70499615
 43
17.39130435
  0
INSERT
  8
SHR
  6
CONTINUOUS
  2
FLTRACE
 10
17977.17587495
 20
-20752.08887393
 30
0.0
 41
17.39130435
 42
17.39130435
 50
334.70499615
 43
17.39130435
  0
INSERT
  8
SHR
  6
CONTINUOUS
  2
FLTRACE
 10
18291.65233112
 20
-20900.70766574
 30
0.0
 41
17.39130435
 42
17.39130435
 50
334.70499615
 43
17.39130435
  0
INSERT
  8
SHR
  6
CONTINUOUS
  2
FLTRACE
 10
18606.1287873
 20
-21049.32645756
 30
0.0
 41
17.39130435
 42
17.39130435
 50
334.70499615
 43
17.39130435
  0
INSERT
  8
SHR
  6
CONTINUOUS
  2
FLTRACE
 10
18920.60524347
 20
-21197.94524937
 30
0.0
 41
17.39130435
 42
17.39130435
 50
334.70499615
 43
17.39130435
  0
INSERT
  8
SHR
  6
CONTINUOUS
  2
FLTRACE
 10
19235.08169964
 20
-21346.56404119
 30
0.0
 41
17.39130435
 42
17.39130435
 50
334.70499615
 43
17.39130435
  0
INSERT
  8
SHR
  6
CONTINUOUS
  2
FLTRACE
 10
19549.55815582
 20
-21495.182833
 30
0.0
 41
17.39130435
 42
17.39130435
 50
334.70499615
 43
17.39130435
  0
INSERT
  8
SHR
  6
CONTINUOUS
  2
FLTRACE
 10
19864.03461199
 20
-21643.80162481
 30
0.0
 41
17.39130435
 42
17.39130435
 50
334.70499615
 43
17.39130435
  0
INSERT
  8
SHR
  6
CONTINUOUS
  2
FLTRACE
 10
20178.51106816
 20
-21792.42041663
 30
0.0
 41
17.39130435
 42
17.39130435
 50
334.70499615
 43
17.39130435
  0
INSERT
  8
SHR
  6
CONTINUOUS
  2
FLTRACE
 10
15604.7650904
 20
-20321.91468223
 30
0.0
 41
17.39130435
 42
17.39130435
 50
38.63728806
 43
17.39130435
  0
INSERT
  8
SHR
  6
CONTINUOUS
  2
FLTRACE
 10
15876.45701614
 20
-20104.73622046
 30
0.0
 41
17.39130435
 42
17.39130435
 50
38.63728806
 43
17.39130435
  0
INSERT
  8
SHR
  6
CONTINUOUS
  2
FLTRACE
 10
16148.14894187
 20
-19887.55775869
 30
0.0
 41
17.39130435
 42
17.39130435
 50
38.63728806
 43
17.39130435
  0
INSERT
  8
SHR
  6
CONTINUOUS
  2
FLTRACE
 10
16419.84086761
 20
-19670.37929691
 30
0.0
 41
17.39130435
 42
17.39130435
 50
38.63728806
 43
17.39130435
  0
INSERT
  8
SHR
  6
CONTINUOUS
  2
FLTRACE
 10
16691.53279334
 20
-19453.20083514
 30
0.0
 41
17.39130435
 42
17.39130435
 50
38.63728806
 43
17.39130435
  0
INSERT
  8
SHR
  6
CONTINUOUS
  2
FLTRACE
 10
16963.22471908
 20
-19236.02237337
 30
0.0
 41
17.39130435
 42
17.39130435
 50
38.63728806
 43
17.39130435
  0
INSERT
  8
SHR
  6
CONTINUOUS
  2
FLTRACE
 10
17257.0610743
 20
-19053.98167735
 30
0.0
 41
17.39130435
 42
17.39130435
 50
25.80239517
 43
17.39130435
  0
INSERT
  8
SHR
  6
CONTINUOUS
  2
FLTRACE
 10
17570.20910088
 20
-18902.58385631
 30
0.0
 41
17.39130435
 42
17.39130435
 50
25.80239517
 43
17.39130435
  0
INSERT
  8
SHR
  6
CONTINUOUS
  2
FLTRACE
 10
17883.35712747
 20
-18751.18603527
 30
0.0
 41
17.39130435
 42
17.39130435
 50
25.80239517
 43
17.39130435
  0
INSERT
  8
SHR
  6
CONTINUOUS
  2
FLTRACE
 10
18196.50515405
 20
-18599.78821423
 30
0.0
 41
17.39130435
 42
17.39130435
 50
25.80239517
 43
17.39130435
  0
INSERT
  8
SHR
  6
CONTINUOUS
  2
FLTRACE
 10
18509.65318063
 20
-18448.39039319
 30
0.0
 41
17.39130435
 42
17.39130435
 50
25.80239517
 43
17.39130435
  0
INSERT
  8
SHR
  6
CONTINUOUS
  2
FLTRACE
 10
18822.80120721
 20
-18296.99257215
 30
0.0
 41
17.39130435
 42
17.39130435
 50
25.80239517
 43
17.39130435
  0
INSERT
  8
SHR
  6
CONTINUOUS
  2
FLTRACE
 10
19126.66960402
 20
-18129.4845072
 30
0.0
 41
17.39130435
 42
17.39130435
 50
34.08218036
 43
17.39130435
  0
INSERT
  8
SHR
  6
CONTINUOUS
  2
FLTRACE
 10
19414.75122477
 20
-17934.56922674
 30
0.0
 41
17.39130435
 42
17.39130435
 50
34.08218036
 43
17.39130435
  0
INSERT
  8
SHR
  6
CONTINUOUS
  2
FLTRACE
 10
19702.83284552
 20
-17739.65394629
 30
0.0
 41
17.39130435
 42
17.39130435
 50
34.08218036
 43
17.39130435
  0
INSERT
  8
SHR
  6
CONTINUOUS
  2
FLTRACE
 10
19990.91446627
 20
-17544.73866584
 30
0.0
 41
17.39130435
 42
17.39130435
 50
34.08218036
 43
17.39130435
  0
INSERT
  8
SHR
  6
CONTINUOUS
  2
FLTRACE
 10
20278.99608702
 20
-17349.82338539
 30
0.0
 41
17.39130435
 42
17.39130435
 50
34.08218036
 43
17.39130435
  0
INSERT
  8
SHR
  6
CONTINUOUS
  2
FLTRACE
 10
16240.92085929
 20
-21764.28165611
 30
0.0
 41
17.39130435
 42
17.39130435
 50
46.02110682
 43
17.39130435
  0
INSERT
  8
SHR
  6
CONTINUOUS
  2
FLTRACE
 10
16482.44897421
 20
-21513.9875162
 30
0.0
 41
17.39130435
 42
17.39130435
 50
46.02110682
 43
17.39130435
  0
INSERT
  8
SHR
  6
CONTINUOUS
  2
FLTRACE
 10
16723.97708913
 20
-21263.6933763
 30
0.0
 41
17.39130435
 42
17.39130435
 50
46.02110682
 43
17.39130435
  0
INSERT
  8
SHR
  6
CONTINUOUS
  2
FLTRACE
 10
16965.50520405
 20
-21013.3992364
 30
0.0
 41
17.39130435
 42
17.39130435
 50
46.02110682
 43
17.39130435
  0
INSERT
  8
SHR
  6
CONTINUOUS
  2
FLTRACE
 10
17207.03331897
 20
-20763.10509649
 30
0.0
 41
17.39130435
 42
17.39130435
 50
46.02110682
 43
17.39130435
  0
INSERT
  8
SHR
  6
CONTINUOUS
  2
FLTRACE
 10
17448.56143389
 20
-20512.81095659
 30
0.0
 41
17.39130435
 42
17.39130435
 50
46.02110682
 43
17.39130435
  0
INSERT
  8
SHR
  6
CONTINUOUS
  2
FLTRACE
 10
17690.08954881
 20
-20262.51681669
 30
0.0
 41
17.39130435
 42
17.39130435
 50
46.02110682
 43
17.39130435
  0
INSERT
  8
SHR
  6
CONTINUOUS
  2
FLTRACE
 10
17931.61766374
 20
-20012.22267678
 30
0.0
 41
17.39130435
 42
17.39130435
 50
46.02110682
 43
17.39130435
  0
INSERT
  8
SHR
  6
CONTINUOUS
  2
FLTRACE
 10
18659.8957503
 20
-19473.80581105
 30
0.0
 41
17.39130435
 42
17.39130435
 50
25.96534493
 43
17.39130435
  0
INSERT
  8
SHR
  6
CONTINUOUS
  2
FLTRACE
 10
18972.61193413
 20
-19321.5180074
 30
0.0
 41
17.39130435
 42
17.39130435
 50
25.96534493
 43
17.39130435
  0
INSERT
  8
SHR
  6
CONTINUOUS
  2
FLTRACE
 10
19285.32811795
 20
-19169.23020374
 30
0.0
 41
17.39130435
 42
17.39130435
 50
25.96534493
 43
17.39130435
  0
INSERT
  8
SHR
  6
CONTINUOUS
  2
FLTRACE
 10
19598.04430178
 20
-19016.94240009
 30
0.0
 41
17.39130435
 42
17.39130435
 50
25.96534493
 43
17.39130435
  0
INSERT
  8
SHR
  6
CONTINUOUS
  2
FLTRACE
 10
19910.7604856
 20
-18864.65459643
 30
0.0
 41
17.39130435
 42
17.39130435
 50
25.96534493
 43
17.39130435
  0
INSERT
  8
SHR
  6
CONTINUOUS
  2
FLTRACE
 10
20223.47666942
 20
-18712.36679278
 30
0.0
 41
17.39130435
 42
17.39130435
 50
25.96534493
 43
17.39130435
  0
INSERT
  8
SHR
  6
CONTINUOUS
  2
FLTRACE
 10
9911.02255551
 20
-25525.4917529
 30
0.0
 41
17.39130435
 42
17.39130435
 50
28.47027782
 43
17.39130435
  0
INSERT
  8
SHR
  6
CONTINUOUS
  2
FLTRACE
 10
10216.78412785
 20
-25359.68207993
 30
0.0
 41
17.39130435
 42
17.39130435
 50
28.47027782
 43
17.39130435
  0
INSERT
  8
SHR
  6
CONTINUOUS
  2
FLTRACE
 10
10522.54570018
 20
-25193.87240697
 30
0.0
 41
17.39130435
 42
17.39130435
 50
28.47027782
 43
17.39130435
  0
INSERT
  8
SHR
  6
CONTINUOUS
  2
FLTRACE
 10
10828.30727252
 20
-25028.06273401
 30
0.0
 41
17.39130435
 42
17.39130435
 50
28.47027782
 43
17.39130435
  0
INSERT
  8
SHR
  6
CONTINUOUS
  2
FLTRACE
 10
11134.06884486
 20
-24862.25306104
 30
0.0
 41
17.39130435
 42
17.39130435
 50
28.47027782
 43
17.39130435
  0
INSERT
  8
SHR
  6
CONTINUOUS
  2
FLTRACE
 10
11439.8304172
 20
-24696.44338808
 30
0.0
 41
17.39130435
 42
17.39130435
 50
28.47027782
 43
17.39130435
  0
INSERT
  8
SHR
  6
CONTINUOUS
  2
FLTRACE
 10
11745.59198954
 20
-24530.63371512
 30
0.0
 41
17.39130435
 42
17.39130435
 50
28.47027782
 43
17.39130435
  0
INSERT
  8
SHR
  6
CONTINUOUS
  2
FLTRACE
 10
12051.35356188
 20
-24364.82404215
 30
0.0
 41
17.39130435
 42
17.39130435
 50
28.47027782
 43
17.39130435
  0
INSERT
  8
SHR
  6
CONTINUOUS
  2
FLTRACE
 10
13374.75715406
 20
-23693.98391617
 30
0.0
 41
17.39130435
 42
17.39130435
 50
29.0860765
 43
17.39130435
  0
INSERT
  8
SHR
  6
CONTINUOUS
  2
FLTRACE
 10
13678.71902608
 20
-23524.89764493
 30
0.0
 41
17.39130435
 42
17.39130435
 50
29.0860765
 43
17.39130435
  0
INSERT
  8
SHR
  6
CONTINUOUS
  2
FLTRACE
 10
13982.68089811
 20
-23355.81137369
 30
0.0
 41
17.39130435
 42
17.39130435
 50
29.0860765
 43
17.39130435
  0
INSERT
  8
SHR
  6
CONTINUOUS
  2
FLTRACE
 10
14286.64277014
 20
-23186.72510245
 30
0.0
 41
17.39130435
 42
17.39130435
 50
29.0860765
 43
17.39130435
  0
INSERT
  8
SHR
  6
CONTINUOUS
  2
FLTRACE
 10
14590.60464216
 20
-23017.63883121
 30
0.0
 41
17.39130435
 42
17.39130435
 50
29.0860765
 43
17.39130435
  0
INSERT
  8
SHR
  6
CONTINUOUS
  2
FLTRACE
 10
14894.56651419
 20
-22848.55255997
 30
0.0
 41
17.39130435
 42
17.39130435
 50
29.0860765
 43
17.39130435
  0
INSERT
  8
SHR
  6
CONTINUOUS
  2
FLTRACE
 10
15198.52838622
 20
-22679.46628874
 30
0.0
 41
17.39130435
 42
17.39130435
 50
29.0860765
 43
17.39130435
  0
INSERT
  8
SHR
  6
CONTINUOUS
  2
FLTRACE
 10
15502.49025824
 20
-22510.3800175
 30
0.0
 41
17.39130435
 42
17.39130435
 50
29.0860765
 43
17.39130435
  0
INSERT
  8
SHR
  6
CONTINUOUS
  2
FLTRACE
 10
15806.45213027
 20
-22341.29374626
 30
0.0
 41
17.39130435
 42
17.39130435
 50
29.0860765
 43
17.39130435
  0
INSERT
  8
SHR
  6
CONTINUOUS
  2
FLTRACE
 10
16123.93308053
 20
-22200.12008137
 30
0.0
 41
17.39130435
 42
17.39130435
 50
22.59907251
 43
17.39130435
  0
INSERT
  8
SHR
  6
CONTINUOUS
  2
FLTRACE
 10
16445.05184153
 20
-22066.45734123
 30
0.0
 41
17.39130435
 42
17.39130435
 50
22.59907251
 43
17.39130435
  0
INSERT
  8
SHR
  6
CONTINUOUS
  2
FLTRACE
 10
16772.70133411
 20
-21951.17071214
 30
0.0
 41
17.39130435
 42
17.39130435
 50
16.53058795
 43
17.39130435
  0
INSERT
  8
SHR
  6
CONTINUOUS
  2
FLTRACE
 10
17106.15106408
 20
-21852.20473644
 30
0.0
 41
17.39130435
 42
17.39130435
 50
16.53058795
 43
17.39130435
  0
INSERT
  8
SHR
  6
CONTINUOUS
  2
FLTRACE
 10
17439.60079406
 20
-21753.23876074
 30
0.0
 41
17.39130435
 42
17.39130435
 50
16.53058795
 43
17.39130435
  0
INSERT
  8
SHR
  6
CONTINUOUS
  2
FLTRACE
 10
17773.05052404
 20
-21654.27278505
 30
0.0
 41
17.39130435
 42
17.39130435
 50
16.53058795
 43
17.39130435
  0
INSERT
  8
SHR
  6
CONTINUOUS
  2
FLTRACE
 10
18106.50025402
 20
-21555.30680935
 30
0.0
 41
17.39130435
 42
17.39130435
 50
16.53058795
 43
17.39130435
  0
INSERT
  8
SHR
  6
CONTINUOUS
  2
FLTRACE
 10
18439.94998399
 20
-21456.34083366
 30
0.0
 41
17.39130435
 42
17.39130435
 50
16.53058795
 43
17.39130435
  0
INSERT
  8
SHR
  6
CONTINUOUS
  2
FLTRACE
 10
19173.37140202
 20
-21239.12333279
 30
0.0
 41
17.39130435
 42
17.39130435
 50
11.10003083
 43
17.39130435
  0
INSERT
  8
SHR
  6
CONTINUOUS
  2
FLTRACE
 10
19514.69055346
 20
-21172.15898684
 30
0.0
 41
17.39130435
 42
17.39130435
 50
11.10003083
 43
17.39130435
  0
INSERT
  8
SHR
  6
CONTINUOUS
  2
FLTRACE
 10
19856.0097049
 20
-21105.19464089
 30
0.0
 41
17.39130435
 42
17.39130435
 50
11.10003083
 43
17.39130435
  0
INSERT
  8
SHR
  6
CONTINUOUS
  2
FLTRACE
 10
20197.32885633
 20
-21038.23029494
 30
0.0
 41
17.39130435
 42
17.39130435
 50
11.10003083
 43
17.39130435
  0
INSERT
  8
SHR
  6
CONTINUOUS
  2
FLTRACE
 10
13797.21207367
 20
-24197.32125652
 30
0.0
 41
17.39130435
 42
17.39130435
 50
23.84740382
 43
17.39130435
  0
INSERT
  8
SHR
  6
CONTINUOUS
  2
FLTRACE
 10
14115.34267557
 20
-24056.69442088
 30
0.0
 41
17.39130435
 42
17.39130435
 50
23.84740382
 43
17.39130435
  0
INSERT
  8
SHR
  6
CONTINUOUS
  2
FLTRACE
 10
14433.47327747
 20
-23916.06758523
 30
0.0
 41
17.39130435
 42
17.39130435
 50
23.84740382
 43
17.39130435
  0
INSERT
  8
SHR
  6
CONTINUOUS
  2
FLTRACE
 10
14751.60387936
 20
-23775.44074958
 30
0.0
 41
17.39130435
 42
17.39130435
 50
23.84740382
 43
17.39130435
  0
INSERT
  8
SHR
  6
CONTINUOUS
  2
FLTRACE
 10
15069.73448126
 20
-23634.81391393
 30
0.0
 41
17.39130435
 42
17.39130435
 50
23.84740382
 43
17.39130435
  0
INSERT
  8
SHR
  6
CONTINUOUS
  2
FLTRACE
 10
15387.86508316
 20
-23494.18707828
 30
0.0
 41
17.39130435
 42
17.39130435
 50
23.84740382
 43
17.39130435
  0
INSERT
  8
SHR
  6
CONTINUOUS
  2
FLTRACE
 10
15705.99568505
 20
-23353.56024264
 30
0.0
 41
17.39130435
 42
17.39130435
 50
23.84740382
 43
17.39130435
  0
INSERT
  8
SHR
  6
CONTINUOUS
  2
FLTRACE
 10
16024.12628695
 20
-23212.93340699
 30
0.0
 41
17.39130435
 42
17.39130435
 50
23.84740382
 43
17.39130435
  0
INSERT
  8
SHR
  6
CONTINUOUS
  2
FLTRACE
 10
16342.25688885
 20
-23072.30657134
 30
0.0
 41
17.39130435
 42
17.39130435
 50
23.84740382
 43
17.39130435
  0
INSERT
  8
SHR
  6
CONTINUOUS
  2
FLTRACE
 10
16660.38749074
 20
-22931.67973569
 30
0.0
 41
17.39130435
 42
17.39130435
 50
23.84740382
 43
17.39130435
  0
INSERT
  8
SHR
  6
CONTINUOUS
  2
FLTRACE
 10
17763.53941032
 20
-22446.55105676
 30
0.0
 41
17.39130435
 42
17.39130435
 50
27.46042574
 43
17.39130435
  0
INSERT
  8
SHR
  6
CONTINUOUS
  2
FLTRACE
 10
18072.17577619
 20
-22286.15598069
 30
0.0
 41
17.39130435
 42
17.39130435
 50
27.46042574
 43
17.39130435
  0
INSERT
  8
SHR
  6
CONTINUOUS
  2
FLTRACE
 10
18380.81214207
 20
-22125.76090463
 30
0.0
 41
17.39130435
 42
17.39130435
 50
27.46042574
 43
17.39130435
  0
INSERT
  8
SHR
  6
CONTINUOUS
  2
FLTRACE
 10
18689.44850794
 20
-21965.36582856
 30
0.0
 41
17.39130435
 42
17.39130435
 50
27.46042574
 43
17.39130435
  0
INSERT
  8
SHR
  6
CONTINUOUS
  2
FLTRACE
 10
18998.08487382
 20
-21804.97075249
 30
0.0
 41
17.39130435
 42
17.39130435
 50
27.46042574
 43
17.39130435
  0
INSERT
  8
SHR
  6
CONTINUOUS
  2
FLTRACE
 10
19306.72123969
 20
-21644.57567642
 30
0.0
 41
17.39130435
 42
17.39130435
 50
27.46042574
 43
17.39130435
  0
INSERT
  8
SHR
  6
CONTINUOUS
  2
FLTRACE
 10
19615.35760557
 20
-21484.18060036
 30
0.0
 41
17.39130435
 42
17.39130435
 50
27.46042574
 43
17.39130435
  0
INSERT
  8
SHR
  6
CONTINUOUS
  2
FLTRACE
 10
19923.99397145
 20
-21323.78552429
 30
0.0
 41
17.39130435
 42
17.39130435
 50
27.46042574
 43
17.39130435
  0
INSERT
  8
SHR
  6
CONTINUOUS
  2
FLTRACE
 10
20232.63033732
 20
-21163.39044822
 30
0.0
 41
17.39130435
 42
17.39130435
 50
27.46042574
 43
17.39130435
  0
INSERT
  8
SHR
  6
CONTINUOUS
  2
FLTRACE
 10
-1562.53646746
 20
-19735.65760661
 30
0.0
 41
17.39130435
 42
17.39130435
 50
21.39347596
 43
17.39130435
  0
INSERT
  8
SHR
  6
CONTINUOUS
  2
FLTRACE
 10
-1238.67651725
 20
-19608.78081828
 30
0.0
 41
17.39130435
 42
17.39130435
 50
21.39347596
 43
17.39130435
  0
INSERT
  8
SHR
  6
CONTINUOUS
  2
FLTRACE
 10
-914.81656704
 20
-19481.90402995
 30
0.0
 41
17.39130435
 42
17.39130435
 50
21.39347596
 43
17.39130435
  0
INSERT
  8
SHR
  6
CONTINUOUS
  2
FLTRACE
 10
-590.95661683
 20
-19355.02724162
 30
0.0
 41
17.39130435
 42
17.39130435
 50
21.39347596
 43
17.39130435
  0
INSERT
  8
SHR
  6
CONTINUOUS
  2
FLTRACE
 10
-267.09666662
 20
-19228.15045328
 30
0.0
 41
17.39130435
 42
17.39130435
 50
21.39347596
 43
17.39130435
  0
INSERT
  8
SHR
  6
CONTINUOUS
  2
FLTRACE
 10
56.76328359
 20
-19101.27366495
 30
0.0
 41
17.39130435
 42
17.39130435
 50
21.39347596
 43
17.39130435
  0
INSERT
  8
SHR
  6
CONTINUOUS
  2
FLTRACE
 10
-3996.35169523
 20
-17434.923435
 30
0.0
 41
17.39130435
 42
17.39130435
 50
15.38046842
 43
17.39130435
  0
INSERT
  8
SHR
  6
CONTINUOUS
  2
FLTRACE
 10
-3660.98269567
 20
-17342.6704085
 30
0.0
 41
17.39130435
 42
17.39130435
 50
15.38046842
 43
17.39130435
  0
INSERT
  8
SHR
  6
CONTINUOUS
  2
FLTRACE
 10
-3325.6136961
 20
-17250.417382
 30
0.0
 41
17.39130435
 42
17.39130435
 50
15.38046842
 43
17.39130435
  0
INSERT
  8
SHR
  6
CONTINUOUS
  2
FLTRACE
 10
-2990.24469654
 20
-17158.1643555
 30
0.0
 41
17.39130435
 42
17.39130435
 50
15.38046842
 43
17.39130435
  0
INSERT
  8
SHR
  6
CONTINUOUS
  2
FLTRACE
 10
-2654.87569697
 20
-17065.911329
 30
0.0
 41
17.39130435
 42
17.39130435
 50
15.38046842
 43
17.39130435
  0
INSERT
  8
SHR
  6
CONTINUOUS
  2
FLTRACE
 10
-2319.50669741
 20
-16973.6583025
 30
0.0
 41
17.39130435
 42
17.39130435
 50
15.38046842
 43
17.39130435
  0
INSERT
  8
SHR
  6
CONTINUOUS
  2
FLTRACE
 10
-1984.13769784
 20
-16881.405276
 30
0.0
 41
17.39130435
 42
17.39130435
 50
15.38046842
 43
17.39130435
  0
INSERT
  8
SHR
  6
CONTINUOUS
  2
FLTRACE
 10
-1648.76869828
 20
-16789.1522495
 30
0.0
 41
17.39130435
 42
17.39130435
 50
15.38046842
 43
17.39130435
  0
LINE
  8
SHR
  6
CONTINUOUS
 10
8994.87909985
 20
-11694.55018344
 30
0.0
 11
9834.84216017
 21
-11239.9463717
 31
0.0
  0
INSERT
  8
SHR
  6
CONTINUOUS
  2
FLTRACE
 10
6482.16295133
 20
-12759.85898104
 30
0.0
 41
17.39130435
 42
17.39130435
 50
20.67642504
 43
17.39130435
  0
INSERT
  8
SHR
  6
CONTINUOUS
  2
FLTRACE
 10
6807.58534876
 20
-12637.04509739
 30
0.0
 41
17.39130435
 42
17.39130435
 50
20.67642504
 43
17.39130435
  0
INSERT
  8
SHR
  6
CONTINUOUS
  2
FLTRACE
 10
7133.00774619
 20
-12514.23121374
 30
0.0
 41
17.39130435
 42
17.39130435
 50
20.67642504
 43
17.39130435
  0
INSERT
  8
SHR
  6
CONTINUOUS
  2
FLTRACE
 10
7459.526958
 20
-12394.41851525
 30
0.0
 41
17.39130435
 42
17.39130435
 50
19.47428939
 43
17.39130435
  0
INSERT
  8
SHR
  6
CONTINUOUS
  2
FLTRACE
 10
7787.45432737
 20
-12278.45892236
 30
0.0
 41
17.39130435
 42
17.39130435
 50
19.47428939
 43
17.39130435
  0
INSERT
  8
SHR
  6
CONTINUOUS
  2
FLTRACE
 10
8115.38169674
 20
-12162.49932946
 30
0.0
 41
17.39130435
 42
17.39130435
 50
19.47428939
 43
17.39130435
  0
INSERT
  8
SHR
  6
CONTINUOUS
  2
FLTRACE
 10
8422.71112426
 20
-11999.78600092
 30
0.0
 41
17.39130435
 42
17.39130435
 50
28.07868954
 43
17.39130435
  0
INSERT
  8
SHR
  6
CONTINUOUS
  2
FLTRACE
 10
8729.59877366
 20
-11836.0699131
 30
0.0
 41
17.39130435
 42
17.39130435
 50
28.07868954
 43
17.39130435
  0
INSERT
  8
SHR
  6
CONTINUOUS
  2
FLTRACE
 10
9036.35225331
 20
-11672.10413249
 30
0.0
 41
17.39130435
 42
17.39130435
 50
28.42308573
 43
17.39130435
  0
INSERT
  8
SHR
  6
CONTINUOUS
  2
FLTRACE
 10
9342.25029226
 20
-11506.54635849
 30
0.0
 41
17.39130435
 42
17.39130435
 50
28.42308573
 43
17.39130435
  0
INSERT
  8
SHR
  6
CONTINUOUS
  2
FLTRACE
 10
9648.14833121
 20
-11340.98858448
 30
0.0
 41
17.39130435
 42
17.39130435
 50
28.42308573
 43
17.39130435
  0
INSERT
  8
SHR
  6
CONTINUOUS
  2
FLTRACE
 10
-971.89106462
 20
-14702.20900189
 30
0.0
 41
17.39130435
 42
17.39130435
 50
31.37052094
 43
17.39130435
  0
INSERT
  8
SHR
  6
CONTINUOUS
  2
FLTRACE
 10
-674.91063081
 20
-14521.14103482
 30
0.0
 41
17.39130435
 42
17.39130435
 50
31.37052094
 43
17.39130435
  0
INSERT
  8
SHR
  6
CONTINUOUS
  2
FLTRACE
 10
-377.93019699
 20
-14340.07306774
 30
0.0
 41
17.39130435
 42
17.39130435
 50
31.37052094
 43
17.39130435
  0
INSERT
  8
SHR
  6
CONTINUOUS
  2
FLTRACE
 10
-10294.59061393
 20
-24339.80981072
 30
0.0
 41
17.39130435
 42
17.39130435
 50
37.74303854
 43
17.39130435
  0
INSERT
  8
SHR
  6
CONTINUOUS
  2
FLTRACE
 10
-10019.5422826
 20
-24126.89808676
 30
0.0
 41
17.39130435
 42
17.39130435
 50
37.74303854
 43
17.39130435
  0
INSERT
  8
SHR
  6
CONTINUOUS
  2
FLTRACE
 10
-9744.49395127
 20
-23913.98636279
 30
0.0
 41
17.39130435
 42
17.39130435
 50
37.74303854
 43
17.39130435
  0
INSERT
  8
SHR
  6
CONTINUOUS
  2
FLTRACE
 10
-9469.44561994
 20
-23701.07463883
 30
0.0
 41
17.39130435
 42
17.39130435
 50
37.74303854
 43
17.39130435
  0
INSERT
  8
SHR
  6
CONTINUOUS
  2
FLTRACE
 10
-9194.39728861
 20
-23488.16291487
 30
0.0
 41
17.39130435
 42
17.39130435
 50
37.74303854
 43
17.39130435
  0
INSERT
  8
SHR
  6
CONTINUOUS
  2
FLTRACE
 10
-8919.34895728
 20
-23275.25119091
 30
0.0
 41
17.39130435
 42
17.39130435
 50
37.74303854
 43
17.39130435
  0
INSERT
  8
SHR
  6
CONTINUOUS
  2
FLTRACE
 10
-8644.30062595
 20
-23062.33946695
 30
0.0
 41
17.39130435
 42
17.39130435
 50
37.74303854
 43
17.39130435
  0
INSERT
  8
SHR
  6
CONTINUOUS
  2
FLTRACE
 10
-8351.12709585
 20
-22875.8001689
 30
0.0
 41
17.39130435
 42
17.39130435
 50
31.25676258
 43
17.39130435
  0
INSERT
  8
SHR
  6
CONTINUOUS
  2
FLTRACE
 10
-8053.7877448
 20
-22695.32220049
 30
0.0
 41
17.39130435
 42
17.39130435
 50
31.25676258
 43
17.39130435
  0
INSERT
  8
SHR
  6
CONTINUOUS
  2
FLTRACE
 10
-7756.44839374
 20
-22514.84423208
 30
0.0
 41
17.39130435
 42
17.39130435
 50
31.25676258
 43
17.39130435
  0
INSERT
  8
SHR
  6
CONTINUOUS
  2
FLTRACE
 10
-7456.85421325
 20
-22338.33641559
 30
0.0
 41
17.39130435
 42
17.39130435
 50
27.93165506
 43
17.39130435
  0
INSERT
  8
SHR
  6
CONTINUOUS
  2
FLTRACE
 10
-7149.54744072
 20
-22175.40841208
 30
0.0
 41
17.39130435
 42
17.39130435
 50
27.93165506
 43
17.39130435
  0
INSERT
  8
SHR
  6
CONTINUOUS
  2
FLTRACE
 10
-6842.2406682
 20
-22012.48040857
 30
0.0
 41
17.39130435
 42
17.39130435
 50
27.93165506
 43
17.39130435
  0
INSERT
  8
SHR
  6
CONTINUOUS
  2
FLTRACE
 10
-6534.93389567
 20
-21849.55240507
 30
0.0
 41
17.39130435
 42
17.39130435
 50
27.93165506
 43
17.39130435
  0
INSERT
  8
SHR
  6
CONTINUOUS
  2
FLTRACE
 10
-6220.62799327
 20
-21701.98662534
 30
0.0
 41
17.39130435
 42
17.39130435
 50
21.05698674
 43
17.39130435
  0
INSERT
  8
SHR
  6
CONTINUOUS
  2
FLTRACE
 10
-5896.02850465
 20
-21577.01399332
 30
0.0
 41
17.39130435
 42
17.39130435
 50
21.05698674
 43
17.39130435
  0
INSERT
  8
SHR
  6
CONTINUOUS
  2
FLTRACE
 10
-5571.42901603
 20
-21452.0413613
 30
0.0
 41
17.39130435
 42
17.39130435
 50
21.05698674
 43
17.39130435
  0
INSERT
  8
SHR
  6
CONTINUOUS
  2
FLTRACE
 10
-5246.82952741
 20
-21327.06872928
 30
0.0
 41
17.39130435
 42
17.39130435
 50
21.05698674
 43
17.39130435
  0
INSERT
  8
SHR
  6
CONTINUOUS
  2
FLTRACE
 10
-4922.23003878
 20
-21202.09609727
 30
0.0
 41
17.39130435
 42
17.39130435
 50
21.05698674
 43
17.39130435
  0
INSERT
  8
SHR
  6
CONTINUOUS
  2
FLTRACE
 10
465.64288902
 20
-18899.11139185
 30
0.0
 41
17.39130435
 42
17.39130435
 50
24.28055353
 43
17.39130435
  0
INSERT
  8
SHR
  6
CONTINUOUS
  2
FLTRACE
 10
1099.75968493
 20
-18613.05573955
 30
0.0
 41
17.39130435
 42
17.39130435
 50
24.28055353
 43
17.39130435
  0
INSERT
  8
SHR
  6
CONTINUOUS
  2
FLTRACE
 10
1416.81808289
 20
-18470.02791341
 30
0.0
 41
17.39130435
 42
17.39130435
 50
24.28055353
 43
17.39130435
  0
INSERT
  8
SHR
  6
CONTINUOUS
  2
FLTRACE
 10
1733.87648085
 20
-18327.00008726
 30
0.0
 41
17.39130435
 42
17.39130435
 50
24.28055353
 43
17.39130435
  0
INSERT
  8
SHR
  6
CONTINUOUS
  2
FLTRACE
 10
2051.26053337
 20
-18184.7544059
 30
0.0
 41
17.39130435
 42
17.39130435
 50
20.92932516
 43
17.39130435
  0
INSERT
  8
SHR
  6
CONTINUOUS
  2
FLTRACE
 10
2376.13766942
 20
-18060.50532847
 30
0.0
 41
17.39130435
 42
17.39130435
 50
20.92932516
 43
17.39130435
  0
INSERT
  8
SHR
  6
CONTINUOUS
  2
FLTRACE
 10
2701.01480546
 20
-17936.25625104
 30
0.0
 41
17.39130435
 42
17.39130435
 50
20.92932516
 43
17.39130435
  0
INSERT
  8
SHR
  6
CONTINUOUS
  2
FLTRACE
 10
3025.89194151
 20
-17812.00717361
 30
0.0
 41
17.39130435
 42
17.39130435
 50
20.92932516
 43
17.39130435
  0
INSERT
  8
SHR
  6
CONTINUOUS
  2
FLTRACE
 10
3350.76907755
 20
-17687.75809618
 30
0.0
 41
17.39130435
 42
17.39130435
 50
20.92932516
 43
17.39130435
  0
INSERT
  8
SHR
  6
CONTINUOUS
  2
FLTRACE
 10
3675.6462136
 20
-17563.50901875
 30
0.0
 41
17.39130435
 42
17.39130435
 50
20.92932516
 43
17.39130435
  0
INSERT
  8
SHR
  6
CONTINUOUS
  2
FLTRACE
 10
4000.52334964
 20
-17439.25994132
 30
0.0
 41
17.39130435
 42
17.39130435
 50
20.92932516
 43
17.39130435
  0
INSERT
  8
SHR
  6
CONTINUOUS
  2
FLTRACE
 10
4325.40048569
 20
-17315.01086389
 30
0.0
 41
17.39130435
 42
17.39130435
 50
20.92932516
 43
17.39130435
  0
INSERT
  8
SHR
  6
CONTINUOUS
  2
FLTRACE
 10
4650.27762173
 20
-17190.76178645
 30
0.0
 41
17.39130435
 42
17.39130435
 50
20.92932516
 43
17.39130435
  0
INSERT
  8
SHR
  6
CONTINUOUS
  2
FLTRACE
 10
-4627.5606852
 20
-21047.75084764
 30
0.0
 41
17.39130435
 42
17.39130435
 50
23.93437451
 43
17.39130435
  0
INSERT
  8
SHR
  6
CONTINUOUS
  2
FLTRACE
 10
-4309.64391069
 20
-20906.64127583
 30
0.0
 41
17.39130435
 42
17.39130435
 50
23.93437451
 43
17.39130435
  0
INSERT
  8
SHR
  6
CONTINUOUS
  2
FLTRACE
 10
-3991.72713619
 20
-20765.53170402
 30
0.0
 41
17.39130435
 42
17.39130435
 50
23.93437451
 43
17.39130435
  0
INSERT
  8
SHR
  6
CONTINUOUS
  2
FLTRACE
 10
-3673.81036169
 20
-20624.42213221
 30
0.0
 41
17.39130435
 42
17.39130435
 50
23.93437451
 43
17.39130435
  0
INSERT
  8
SHR
  6
CONTINUOUS
  2
FLTRACE
 10
-3355.89358718
 20
-20483.3125604
 30
0.0
 41
17.39130435
 42
17.39130435
 50
23.93437451
 43
17.39130435
  0
INSERT
  8
SHR
  6
CONTINUOUS
  2
FLTRACE
 10
-3037.97681268
 20
-20342.20298859
 30
0.0
 41
17.39130435
 42
17.39130435
 50
23.93437451
 43
17.39130435
  0
INSERT
  8
SHR
  6
CONTINUOUS
  2
FLTRACE
 10
-2720.06003817
 20
-20201.09341679
 30
0.0
 41
17.39130435
 42
17.39130435
 50
23.93437451
 43
17.39130435
  0
INSERT
  8
SHR
  6
CONTINUOUS
  2
FLTRACE
 10
-6152.1579478
 20
-16476.33011798
 30
0.0
 41
17.39130435
 42
17.39130435
 50
302.18528553
 43
17.39130435
  0
INSERT
  8
SHR
  6
CONTINUOUS
  2
FLTRACE
 10
-5966.88527212
 20
-16770.70576645
 30
0.0
 41
17.39130435
 42
17.39130435
 50
302.18528553
 43
17.39130435
  0
INSERT
  8
SHR
  6
CONTINUOUS
  2
FLTRACE
 10
-5781.61259644
 20
-17065.08141493
 30
0.0
 41
17.39130435
 42
17.39130435
 50
302.18528553
 43
17.39130435
  0
INSERT
  8
SHR
  6
CONTINUOUS
  2
FLTRACE
 10
-5596.33992076
 20
-17359.4570634
 30
0.0
 41
17.39130435
 42
17.39130435
 50
302.18528553
 43
17.39130435
  0
INSERT
  8
SHR
  6
CONTINUOUS
  2
FLTRACE
 10
-5411.06724508
 20
-17653.83271187
 30
0.0
 41
17.39130435
 42
17.39130435
 50
302.18528553
 43
17.39130435
  0
INSERT
  8
SHR
  6
CONTINUOUS
  2
FLTRACE
 10
-5225.7945694
 20
-17948.20836035
 30
0.0
 41
17.39130435
 42
17.39130435
 50
302.18528553
 43
17.39130435
  0
INSERT
  8
SHR
  6
CONTINUOUS
  2
FLTRACE
 10
-5040.52189372
 20
-18242.58400882
 30
0.0
 41
17.39130435
 42
17.39130435
 50
302.18528553
 43
17.39130435
  0
INSERT
  8
SHR
  6
CONTINUOUS
  2
FLTRACE
 10
-4855.24921804
 20
-18536.95965729
 30
0.0
 41
17.39130435
 42
17.39130435
 50
302.18528553
 43
17.39130435
  0
INSERT
  8
SHR
  6
CONTINUOUS
  2
FLTRACE
 10
-4669.97654236
 20
-18831.33530577
 30
0.0
 41
17.39130435
 42
17.39130435
 50
302.18528553
 43
17.39130435
  0
INSERT
  8
SHR
  6
CONTINUOUS
  2
FLTRACE
 10
-4484.70386668
 20
-19125.71095424
 30
0.0
 41
17.39130435
 42
17.39130435
 50
302.18528553
 43
17.39130435
  0
INSERT
  8
SHR
  6
CONTINUOUS
  2
FLTRACE
 10
-4299.431191
 20
-19420.08660271
 30
0.0
 41
17.39130435
 42
17.39130435
 50
302.18528553
 43
17.39130435
  0
INSERT
  8
SHR
  6
CONTINUOUS
  2
FLTRACE
 10
-4114.15851532
 20
-19714.46225119
 30
0.0
 41
17.39130435
 42
17.39130435
 50
302.18528553
 43
17.39130435
  0
INSERT
  8
SHR
  6
CONTINUOUS
  2
FLTRACE
 10
-3928.88583964
 20
-20008.83789966
 30
0.0
 41
17.39130435
 42
17.39130435
 50
302.18528553
 43
17.39130435
  0
INSERT
  8
SHR
  6
CONTINUOUS
  2
FLTRACE
 10
-3743.61316396
 20
-20303.21354813
 30
0.0
 41
17.39130435
 42
17.39130435
 50
302.18528553
 43
17.39130435
  0
INSERT
  8
SHR
  6
CONTINUOUS
  2
FLTRACE
 10
7105.20955308
 20
-19540.72349214
 30
0.0
 41
17.39130435
 42
17.39130435
 50
314.20542422
 43
17.39130435
  0
INSERT
  8
SHR
  6
CONTINUOUS
  2
FLTRACE
 10
7347.72536872
 20
-19790.06074554
 30
0.0
 41
17.39130435
 42
17.39130435
 50
314.20542422
 43
17.39130435
  0
INSERT
  8
SHR
  6
CONTINUOUS
  2
FLTRACE
 10
7590.24118435
 20
-20039.39799894
 30
0.0
 41
17.39130435
 42
17.39130435
 50
314.20542422
 43
17.39130435
  0
INSERT
  8
SHR
  6
CONTINUOUS
  2
FLTRACE
 10
7832.75699999
 20
-20288.73525234
 30
0.0
 41
17.39130435
 42
17.39130435
 50
314.20542422
 43
17.39130435
  0
INSERT
  8
SHR
  6
CONTINUOUS
  2
FLTRACE
 10
8075.27281563
 20
-20538.07250575
 30
0.0
 41
17.39130435
 42
17.39130435
 50
314.20542422
 43
17.39130435
  0
INSERT
  8
SHR
  6
CONTINUOUS
  2
FLTRACE
 10
8317.78863126
 20
-20787.40975915
 30
0.0
 41
17.39130435
 42
17.39130435
 50
314.20542422
 43
17.39130435
  0
INSERT
  8
SHR
  6
CONTINUOUS
  2
FLTRACE
 10
8560.3044469
 20
-21036.74701255
 30
0.0
 41
17.39130435
 42
17.39130435
 50
314.20542422
 43
17.39130435
  0
INSERT
  8
SHR
  6
CONTINUOUS
  2
FLTRACE
 10
8802.82026253
 20
-21286.08426595
 30
0.0
 41
17.39130435
 42
17.39130435
 50
314.20542422
 43
17.39130435
  0
INSERT
  8
SHR
  6
CONTINUOUS
  2
FLTRACE
 10
9045.33607817
 20
-21535.42151935
 30
0.0
 41
17.39130435
 42
17.39130435
 50
314.20542422
 43
17.39130435
  0
INSERT
  8
SHR
  6
CONTINUOUS
  2
FLTRACE
 10
9287.85189381
 20
-21784.75877275
 30
0.0
 41
17.39130435
 42
17.39130435
 50
314.20542422
 43
17.39130435
  0
INSERT
  8
SHR
  6
CONTINUOUS
  2
FLTRACE
 10
9530.36770944
 20
-22034.09602615
 30
0.0
 41
17.39130435
 42
17.39130435
 50
314.20542422
 43
17.39130435
  0
INSERT
  8
SHR
  6
CONTINUOUS
  2
FLTRACE
 10
9772.88352508
 20
-22283.43327956
 30
0.0
 41
17.39130435
 42
17.39130435
 50
314.20542422
 43
17.39130435
  0
INSERT
  8
SHR
  6
CONTINUOUS
  2
FLTRACE
 10
10015.39934071
 20
-22532.77053296
 30
0.0
 41
17.39130435
 42
17.39130435
 50
314.20542422
 43
17.39130435
  0
INSERT
  8
SHR
  6
CONTINUOUS
  2
FLTRACE
 10
10257.91515635
 20
-22782.10778636
 30
0.0
 41
17.39130435
 42
17.39130435
 50
314.20542422
 43
17.39130435
  0
INSERT
  8
SHR
  6
CONTINUOUS
  2
FLTRACE
 10
10500.43097199
 20
-23031.44503976
 30
0.0
 41
17.39130435
 42
17.39130435
 50
314.20542422
 43
17.39130435
  0
INSERT
  8
SHR
  6
CONTINUOUS
  2
FLTRACE
 10
7164.5709001
 20
-18545.68666901
 30
0.0
 41
17.39130435
 42
17.39130435
 50
315.72248682
 43
17.39130435
  0
INSERT
  8
SHR
  6
CONTINUOUS
  2
FLTRACE
 10
7413.60282529
 20
-18788.5160062
 30
0.0
 41
17.39130435
 42
17.39130435
 50
315.72248682
 43
17.39130435
  0
INSERT
  8
SHR
  6
CONTINUOUS
  2
FLTRACE
 10
7662.63475049
 20
-19031.3453434
 30
0.0
 41
17.39130435
 42
17.39130435
 50
315.72248682
 43
17.39130435
  0
INSERT
  8
SHR
  6
CONTINUOUS
  2
FLTRACE
 10
7911.66667568
 20
-19274.17468059
 30
0.0
 41
17.39130435
 42
17.39130435
 50
315.72248682
 43
17.39130435
  0
INSERT
  8
SHR
  6
CONTINUOUS
  2
FLTRACE
 10
8160.69860088
 20
-19517.00401778
 30
0.0
 41
17.39130435
 42
17.39130435
 50
315.72248682
 43
17.39130435
  0
INSERT
  8
SHR
  6
CONTINUOUS
  2
FLTRACE
 10
8409.73052607
 20
-19759.83335497
 30
0.0
 41
17.39130435
 42
17.39130435
 50
315.72248682
 43
17.39130435
  0
INSERT
  8
SHR
  6
CONTINUOUS
  2
FLTRACE
 10
8658.76245126
 20
-20002.66269217
 30
0.0
 41
17.39130435
 42
17.39130435
 50
315.72248682
 43
17.39130435
  0
INSERT
  8
SHR
  6
CONTINUOUS
  2
FLTRACE
 10
8907.79437646
 20
-20245.49202936
 30
0.0
 41
17.39130435
 42
17.39130435
 50
315.72248682
 43
17.39130435
  0
INSERT
  8
SHR
  6
CONTINUOUS
  2
FLTRACE
 10
9156.82630165
 20
-20488.32136655
 30
0.0
 41
17.39130435
 42
17.39130435
 50
315.72248682
 43
17.39130435
  0
INSERT
  8
SHR
  6
CONTINUOUS
  2
FLTRACE
 10
9405.85822685
 20
-20731.15070375
 30
0.0
 41
17.39130435
 42
17.39130435
 50
315.72248682
 43
17.39130435
  0
INSERT
  8
SHR
  6
CONTINUOUS
  2
FLTRACE
 10
6647.13782525
 20
-17093.13656975
 30
0.0
 41
17.39130435
 42
17.39130435
 50
318.54082922
 43
17.39130435
  0
INSERT
  8
SHR
  6
CONTINUOUS
  2
FLTRACE
 10
6907.80833534
 20
-17323.42741181
 30
0.0
 41
17.39130435
 42
17.39130435
 50
318.54082922
 43
17.39130435
  0
INSERT
  8
SHR
  6
CONTINUOUS
  2
FLTRACE
 10
7168.47884542
 20
-17553.71825388
 30
0.0
 41
17.39130435
 42
17.39130435
 50
318.54082922
 43
17.39130435
  0
INSERT
  8
SHR
  6
CONTINUOUS
  2
FLTRACE
 10
7429.1493555
 20
-17784.00909595
 30
0.0
 41
17.39130435
 42
17.39130435
 50
318.54082922
 43
17.39130435
  0
INSERT
  8
SHR
  6
CONTINUOUS
  2
FLTRACE
 10
7689.81986559
 20
-18014.29993801
 30
0.0
 41
17.39130435
 42
17.39130435
 50
318.54082922
 43
17.39130435
  0
INSERT
  8
SHR
  6
CONTINUOUS
  2
FLTRACE
 10
7950.49037567
 20
-18244.59078008
 30
0.0
 41
17.39130435
 42
17.39130435
 50
318.54082922
 43
17.39130435
  0
INSERT
  8
SHR
  6
CONTINUOUS
  2
FLTRACE
 10
8211.16088576
 20
-18474.88162215
 30
0.0
 41
17.39130435
 42
17.39130435
 50
318.54082922
 43
17.39130435
  0
INSERT
  8
SHR
  6
CONTINUOUS
  2
FLTRACE
 10
8471.83139584
 20
-18705.17246422
 30
0.0
 41
17.39130435
 42
17.39130435
 50
318.54082922
 43
17.39130435
  0
INSERT
  8
SHR
  6
CONTINUOUS
  2
FLTRACE
 10
8732.50190593
 20
-18935.46330628
 30
0.0
 41
17.39130435
 42
17.39130435
 50
318.54082922
 43
17.39130435
  0
INSERT
  8
SHR
  6
CONTINUOUS
  2
FLTRACE
 10
8993.17241601
 20
-19165.75414835
 30
0.0
 41
17.39130435
 42
17.39130435
 50
318.54082922
 43
17.39130435
  0
INSERT
  8
SHR
  6
CONTINUOUS
  2
FLTRACE
 10
9253.84292609
 20
-19396.04499042
 30
0.0
 41
17.39130435
 42
17.39130435
 50
318.54082922
 43
17.39130435
  0
INSERT
  8
SHR
  6
CONTINUOUS
  2
FLTRACE
 10
9514.51343618
 20
-19626.33583248
 30
0.0
 41
17.39130435
 42
17.39130435
 50
318.54082922
 43
17.39130435
  0
INSERT
  8
SHR
  6
CONTINUOUS
  2
FLTRACE
 10
11365.37555747
 20
-17769.58704161
 30
0.0
 41
17.39130435
 42
17.39130435
 50
303.64228394
 43
17.39130435
  0
INSERT
  8
SHR
  6
CONTINUOUS
  2
FLTRACE
 10
11558.07332767
 20
-18059.15664659
 30
0.0
 41
17.39130435
 42
17.39130435
 50
303.64228394
 43
17.39130435
  0
INSERT
  8
SHR
  6
CONTINUOUS
  2
FLTRACE
 10
11750.77109788
 20
-18348.72625156
 30
0.0
 41
17.39130435
 42
17.39130435
 50
303.64228394
 43
17.39130435
  0
INSERT
  8
SHR
  6
CONTINUOUS
  2
FLTRACE
 10
11943.46886809
 20
-18638.29585654
 30
0.0
 41
17.39130435
 42
17.39130435
 50
303.64228394
 43
17.39130435
  0
INSERT
  8
SHR
  6
CONTINUOUS
  2
FLTRACE
 10
12136.16663829
 20
-18927.86546151
 30
0.0
 41
17.39130435
 42
17.39130435
 50
303.64228394
 43
17.39130435
  0
INSERT
  8
SHR
  6
CONTINUOUS
  2
FLTRACE
 10
12328.8644085
 20
-19217.43506649
 30
0.0
 41
17.39130435
 42
17.39130435
 50
303.64228394
 43
17.39130435
  0
INSERT
  8
SHR
  6
CONTINUOUS
  2
FLTRACE
 10
12521.5621787
 20
-19507.00467146
 30
0.0
 41
17.39130435
 42
17.39130435
 50
303.64228394
 43
17.39130435
  0
INSERT
  8
SHR
  6
CONTINUOUS
  2
FLTRACE
 10
12714.25994891
 20
-19796.57427644
 30
0.0
 41
17.39130435
 42
17.39130435
 50
303.64228394
 43
17.39130435
  0
INSERT
  8
SHR
  6
CONTINUOUS
  2
FLTRACE
 10
12906.95771911
 20
-20086.14388141
 30
0.0
 41
17.39130435
 42
17.39130435
 50
303.64228394
 43
17.39130435
  0
INSERT
  8
SHR
  6
CONTINUOUS
  2
FLTRACE
 10
13099.65548932
 20
-20375.71348639
 30
0.0
 41
17.39130435
 42
17.39130435
 50
303.64228394
 43
17.39130435
  0
INSERT
  8
SHR
  6
CONTINUOUS
  2
FLTRACE
 10
13292.35325952
 20
-20665.28309136
 30
0.0
 41
17.39130435
 42
17.39130435
 50
303.64228394
 43
17.39130435
  0
INSERT
  8
SHR
  6
CONTINUOUS
  2
FLTRACE
 10
13485.05102973
 20
-20954.85269633
 30
0.0
 41
17.39130435
 42
17.39130435
 50
303.64228394
 43
17.39130435
  0
INSERT
  8
SHR
  6
CONTINUOUS
  2
FLTRACE
 10
13677.74879993
 20
-21244.42230131
 30
0.0
 41
17.39130435
 42
17.39130435
 50
303.64228394
 43
17.39130435
  0
INSERT
  8
SHR
  6
CONTINUOUS
  2
FLTRACE
 10
13870.44657014
 20
-21533.99190628
 30
0.0
 41
17.39130435
 42
17.39130435
 50
303.64228394
 43
17.39130435
  0
INSERT
  8
SHR
  6
CONTINUOUS
  2
FLTRACE
 10
14063.14434035
 20
-21823.56151126
 30
0.0
 41
17.39130435
 42
17.39130435
 50
303.64228394
 43
17.39130435
  0
INSERT
  8
SHR
  6
CONTINUOUS
  2
FLTRACE
 10
11713.62879331
 20
-15000.50430356
 30
0.0
 41
17.39130435
 42
17.39130435
 50
334.85710499
 43
17.39130435
  0
INSERT
  8
SHR
  6
CONTINUOUS
  2
FLTRACE
 10
12028.498694
 20
-15148.28770048
 30
0.0
 41
17.39130435
 42
17.39130435
 50
334.85710499
 43
17.39130435
  0
INSERT
  8
SHR
  6
CONTINUOUS
  2
FLTRACE
 10
12343.36859469
 20
-15296.07109741
 30
0.0
 41
17.39130435
 42
17.39130435
 50
334.85710499
 43
17.39130435
  0
INSERT
  8
SHR
  6
CONTINUOUS
  2
FLTRACE
 10
12658.23849539
 20
-15443.85449433
 30
0.0
 41
17.39130435
 42
17.39130435
 50
334.85710499
 43
17.39130435
  0
INSERT
  8
SHR
  6
CONTINUOUS
  2
FLTRACE
 10
12973.10839608
 20
-15591.63789125
 30
0.0
 41
17.39130435
 42
17.39130435
 50
334.85710499
 43
17.39130435
  0
INSERT
  8
SHR
  6
CONTINUOUS
  2
FLTRACE
 10
13287.97829677
 20
-15739.42128818
 30
0.0
 41
17.39130435
 42
17.39130435
 50
334.85710499
 43
17.39130435
  0
INSERT
  8
SHR
  6
CONTINUOUS
  2
FLTRACE
 10
13602.84819746
 20
-15887.2046851
 30
0.0
 41
17.39130435
 42
17.39130435
 50
334.85710499
 43
17.39130435
  0
INSERT
  8
SHR
  6
CONTINUOUS
  2
FLTRACE
 10
13917.71809815
 20
-16034.98808203
 30
0.0
 41
17.39130435
 42
17.39130435
 50
334.85710499
 43
17.39130435
  0
INSERT
  8
SHR
  6
CONTINUOUS
  2
FLTRACE
 10
14232.58799884
 20
-16182.77147895
 30
0.0
 41
17.39130435
 42
17.39130435
 50
334.85710499
 43
17.39130435
  0
INSERT
  8
SHR
  6
CONTINUOUS
  2
FLTRACE
 10
14547.45789953
 20
-16330.55487587
 30
0.0
 41
17.39130435
 42
17.39130435
 50
334.85710499
 43
17.39130435
  0
INSERT
  8
SHR
  6
CONTINUOUS
  2
FLTRACE
 10
7789.84375537
 20
-11976.84343093
 30
0.0
 41
17.39130435
 42
17.39130435
 50
321.97898025
 43
17.39130435
  0
INSERT
  8
SHR
  6
CONTINUOUS
  2
FLTRACE
 10
8063.85587248
 20
-12191.08709232
 30
0.0
 41
17.39130435
 42
17.39130435
 50
321.97898025
 43
17.39130435
  0
INSERT
  8
SHR
  6
CONTINUOUS
  2
FLTRACE
 10
8337.86798959
 20
-12405.3307537
 30
0.0
 41
17.39130435
 42
17.39130435
 50
321.97898025
 43
17.39130435
  0
INSERT
  8
SHR
  6
CONTINUOUS
  2
FLTRACE
 10
8611.8801067
 20
-12619.57441509
 30
0.0
 41
17.39130435
 42
17.39130435
 50
321.97898025
 43
17.39130435
  0
INSERT
  8
SHR
  6
CONTINUOUS
  2
FLTRACE
 10
8885.89222381
 20
-12833.81807648
 30
0.0
 41
17.39130435
 42
17.39130435
 50
321.97898025
 43
17.39130435
  0
INSERT
  8
SHR
  6
CONTINUOUS
  2
FLTRACE
 10
9159.90434092
 20
-13048.06173786
 30
0.0
 41
17.39130435
 42
17.39130435
 50
321.97898025
 43
17.39130435
  0
INSERT
  8
SHR
  6
CONTINUOUS
  2
FLTRACE
 10
9433.91645803
 20
-13262.30539925
 30
0.0
 41
17.39130435
 42
17.39130435
 50
321.97898025
 43
17.39130435
  0
INSERT
  8
SHR
  6
CONTINUOUS
  2
FLTRACE
 10
9707.92857514
 20
-13476.54906064
 30
0.0
 41
17.39130435
 42
17.39130435
 50
321.97898025
 43
17.39130435
  0
INSERT
  8
SHR
  6
CONTINUOUS
  2
FLTRACE
 10
9981.94069225
 20
-13690.79272202
 30
0.0
 41
17.39130435
 42
17.39130435
 50
321.97898025
 43
17.39130435
  0
INSERT
  8
SHR
  6
CONTINUOUS
  2
FLTRACE
 10
10255.95280936
 20
-13905.03638341
 30
0.0
 41
17.39130435
 42
17.39130435
 50
321.97898025
 43
17.39130435
  0
INSERT
  8
SHR
  6
CONTINUOUS
  2
FLTRACE
 10
10529.96492647
 20
-14119.28004479
 30
0.0
 41
17.39130435
 42
17.39130435
 50
321.97898025
 43
17.39130435
  0
INSERT
  8
SHR
  6
CONTINUOUS
  2
FLTRACE
 10
10803.97704358
 20
-14333.52370618
 30
0.0
 41
17.39130435
 42
17.39130435
 50
321.97898025
 43
17.39130435
  0
INSERT
  8
SHR
  6
CONTINUOUS
  2
FLTRACE
 10
11077.98916069
 20
-14547.76736757
 30
0.0
 41
17.39130435
 42
17.39130435
 50
321.97898025
 43
17.39130435
  0
INSERT
  8
SHR
  6
CONTINUOUS
  2
FLTRACE
 10
11352.0012778
 20
-14762.01102895
 30
0.0
 41
17.39130435
 42
17.39130435
 50
321.97898025
 43
17.39130435
  0
INSERT
  8
SHR
  6
CONTINUOUS
  2
FLTRACE
 10
7102.24148573
 20
-13774.89242711
 30
0.0
 41
17.39130435
 42
17.39130435
 50
323.91240419
 43
17.39130435
  0
INSERT
  8
SHR
  6
CONTINUOUS
  2
FLTRACE
 10
7383.32580657
 20
-13979.76944229
 30
0.0
 41
17.39130435
 42
17.39130435
 50
323.91240419
 43
17.39130435
  0
INSERT
  8
SHR
  6
CONTINUOUS
  2
FLTRACE
 10
7664.4101274
 20
-14184.64645747
 30
0.0
 41
17.39130435
 42
17.39130435
 50
323.91240419
 43
17.39130435
  0
INSERT
  8
SHR
  6
CONTINUOUS
  2
FLTRACE
 10
7945.49444824
 20
-14389.52347264
 30
0.0
 41
17.39130435
 42
17.39130435
 50
323.91240419
 43
17.39130435
  0
INSERT
  8
SHR
  6
CONTINUOUS
  2
FLTRACE
 10
8226.57876907
 20
-14594.40048782
 30
0.0
 41
17.39130435
 42
17.39130435
 50
323.91240419
 43
17.39130435
  0
INSERT
  8
SHR
  6
CONTINUOUS
  2
FLTRACE
 10
8507.66308991
 20
-14799.277503
 30
0.0
 41
17.39130435
 42
17.39130435
 50
323.91240419
 43
17.39130435
  0
INSERT
  8
SHR
  6
CONTINUOUS
  2
FLTRACE
 10
6131.68346197
 20
-14222.22257786
 30
0.0
 41
17.39130435
 42
17.39130435
 50
317.98370191
 43
17.39130435
  0
INSERT
  8
SHR
  6
CONTINUOUS
  2
FLTRACE
 10
6390.10240375
 20
-14455.03717641
 30
0.0
 41
17.39130435
 42
17.39130435
 50
317.98370191
 43
17.39130435
  0
INSERT
  8
SHR
  6
CONTINUOUS
  2
FLTRACE
 10
6648.52134553
 20
-14687.85177496
 30
0.0
 41
17.39130435
 42
17.39130435
 50
317.98370191
 43
17.39130435
  0
INSERT
  8
SHR
  6
CONTINUOUS
  2
FLTRACE
 10
6906.94028731
 20
-14920.66637351
 30
0.0
 41
17.39130435
 42
17.39130435
 50
317.98370191
 43
17.39130435
  0
INSERT
  8
SHR
  6
CONTINUOUS
  2
FLTRACE
 10
7165.35922909
 20
-15153.48097205
 30
0.0
 41
17.39130435
 42
17.39130435
 50
317.98370191
 43
17.39130435
  0
INSERT
  8
SHR
  6
CONTINUOUS
  2
FLTRACE
 10
7423.77817087
 20
-15386.2955706
 30
0.0
 41
17.39130435
 42
17.39130435
 50
317.98370191
 43
17.39130435
  0
INSERT
  8
SHR
  6
CONTINUOUS
  2
FLTRACE
 10
7682.19711265
 20
-15619.11016915
 30
0.0
 41
17.39130435
 42
17.39130435
 50
317.98370191
 43
17.39130435
  0
INSERT
  8
SHR
  6
CONTINUOUS
  2
FLTRACE
 10
7940.61605443
 20
-15851.92476769
 30
0.0
 41
17.39130435
 42
17.39130435
 50
317.98370191
 43
17.39130435
  0
INSERT
  8
SHR
  6
CONTINUOUS
  2
FLTRACE
 10
3771.08056219
 20
-15755.51031409
 30
0.0
 41
17.39130435
 42
17.39130435
 50
333.12826075
 43
17.39130435
  0
INSERT
  8
SHR
  6
CONTINUOUS
  2
FLTRACE
 10
4081.34859051
 20
-15912.7258902
 30
0.0
 41
17.39130435
 42
17.39130435
 50
333.12826075
 43
17.39130435
  0
INSERT
  8
SHR
  6
CONTINUOUS
  2
FLTRACE
 10
4391.61661882
 20
-16069.94146631
 30
0.0
 41
17.39130435
 42
17.39130435
 50
333.12826075
 43
17.39130435
  0
INSERT
  8
SHR
  6
CONTINUOUS
  2
FLTRACE
 10
4701.88464714
 20
-16227.15704241
 30
0.0
 41
17.39130435
 42
17.39130435
 50
333.12826075
 43
17.39130435
  0
INSERT
  8
SHR
  6
CONTINUOUS
  2
FLTRACE
 10
5012.15267546
 20
-16384.37261852
 30
0.0
 41
17.39130435
 42
17.39130435
 50
333.12826075
 43
17.39130435
  0
INSERT
  8
SHR
  6
CONTINUOUS
  2
FLTRACE
 10
5322.42070378
 20
-16541.58819463
 30
0.0
 41
17.39130435
 42
17.39130435
 50
333.12826075
 43
17.39130435
  0
INSERT
  8
SHR
  6
CONTINUOUS
  2
FLTRACE
 10
2369.16341676
 20
-16521.42681611
 30
0.0
 41
17.39130435
 42
17.39130435
 50
325.16161438
 43
17.39130435
  0
INSERT
  8
SHR
  6
CONTINUOUS
  2
FLTRACE
 10
2654.64747667
 20
-16720.12718929
 30
0.0
 41
17.39130435
 42
17.39130435
 50
325.16161438
 43
17.39130435
  0
INSERT
  8
SHR
  6
CONTINUOUS
  2
FLTRACE
 10
2940.13153659
 20
-16918.82756247
 30
0.0
 41
17.39130435
 42
17.39130435
 50
325.16161438
 43
17.39130435
  0
INSERT
  8
SHR
  6
CONTINUOUS
  2
FLTRACE
 10
3225.6155965
 20
-17117.52793565
 30
0.0
 41
17.39130435
 42
17.39130435
 50
325.16161438
 43
17.39130435
  0
INSERT
  8
SHR
  6
CONTINUOUS
  2
FLTRACE
 10
3511.09965642
 20
-17316.22830883
 30
0.0
 41
17.39130435
 42
17.39130435
 50
325.16161438
 43
17.39130435
  0
INSERT
  8
SHR
  6
CONTINUOUS
  2
FLTRACE
 10
3796.58371633
 20
-17514.92868201
 30
0.0
 41
17.39130435
 42
17.39130435
 50
325.16161438
 43
17.39130435
  0
INSERT
  8
SHR
  6
CONTINUOUS
  2
FLTRACE
 10
4082.06777624
 20
-17713.62905519
 30
0.0
 41
17.39130435
 42
17.39130435
 50
325.16161438
 43
17.39130435
  0
INSERT
  8
SHR
  6
CONTINUOUS
  2
FLTRACE
 10
2752.04410503
 20
-17971.79481707
 30
0.0
 41
17.39130435
 42
17.39130435
 50
317.25420842
 43
17.39130435
  0
INSERT
  8
SHR
  6
CONTINUOUS
  2
FLTRACE
 10
3007.47797142
 20
-18207.88066304
 30
0.0
 41
17.39130435
 42
17.39130435
 50
317.25420842
 43
17.39130435
  0
INSERT
  8
SHR
  6
CONTINUOUS
  2
FLTRACE
 10
3262.91183782
 20
-18443.96650901
 30
0.0
 41
17.39130435
 42
17.39130435
 50
317.25420842
 43
17.39130435
  0
INSERT
  8
SHR
  6
CONTINUOUS
  2
FLTRACE
 10
3518.34570421
 20
-18680.05235498
 30
0.0
 41
17.39130435
 42
17.39130435
 50
317.25420842
 43
17.39130435
  0
INSERT
  8
SHR
  6
CONTINUOUS
  2
FLTRACE
 10
3773.7795706
 20
-18916.13820095
 30
0.0
 41
17.39130435
 42
17.39130435
 50
317.25420842
 43
17.39130435
  0
INSERT
  8
SHR
  6
CONTINUOUS
  2
FLTRACE
 10
4029.213437
 20
-19152.22404692
 30
0.0
 41
17.39130435
 42
17.39130435
 50
317.25420842
 43
17.39130435
  0
INSERT
  8
SHR
  6
CONTINUOUS
  2
FLTRACE
 10
4284.64730339
 20
-19388.30989288
 30
0.0
 41
17.39130435
 42
17.39130435
 50
317.25420842
 43
17.39130435
  0
INSERT
  8
SHR
  6
CONTINUOUS
  2
FLTRACE
 10
4540.08116979
 20
-19624.39573885
 30
0.0
 41
17.39130435
 42
17.39130435
 50
317.25420842
 43
17.39130435
  0
INSERT
  8
SHR
  6
CONTINUOUS
  2
FLTRACE
 10
4795.51503618
 20
-19860.48158482
 30
0.0
 41
17.39130435
 42
17.39130435
 50
317.25420842
 43
17.39130435
  0
INSERT
  8
SHR
  6
CONTINUOUS
  2
FLTRACE
 10
5050.94890257
 20
-20096.56743079
 30
0.0
 41
17.39130435
 42
17.39130435
 50
317.25420842
 43
17.39130435
  0
INSERT
  8
SHR
  6
CONTINUOUS
  2
FLTRACE
 10
5306.38276897
 20
-20332.65327676
 30
0.0
 41
17.39130435
 42
17.39130435
 50
317.25420842
 43
17.39130435
  0
INSERT
  8
SHR
  6
CONTINUOUS
  2
FLTRACE
 10
5561.81663536
 20
-20568.73912273
 30
0.0
 41
17.39130435
 42
17.39130435
 50
317.25420842
 43
17.39130435
  0
INSERT
  8
SHR
  6
CONTINUOUS
  2
FLTRACE
 10
5817.25050175
 20
-20804.8249687
 30
0.0
 41
17.39130435
 42
17.39130435
 50
317.25420842
 43
17.39130435
  0
INSERT
  8
SHR
  6
CONTINUOUS
  2
FLTRACE
 10
2075.32474902
 20
-18248.92130071
 30
0.0
 41
17.39130435
 42
17.39130435
 50
236.1048455
 43
17.39130435
  0
INSERT
  8
SHR
  6
CONTINUOUS
  2
FLTRACE
 10
1881.35086626
 20
-18537.63763135
 30
0.0
 41
17.39130435
 42
17.39130435
 50
236.1048455
 43
17.39130435
  0
INSERT
  8
SHR
  6
CONTINUOUS
  2
FLTRACE
 10
1687.37698351
 20
-18826.35396199
 30
0.0
 41
17.39130435
 42
17.39130435
 50
236.1048455
 43
17.39130435
  0
INSERT
  8
SHR
  6
CONTINUOUS
  2
FLTRACE
 10
1493.40310076
 20
-19115.07029263
 30
0.0
 41
17.39130435
 42
17.39130435
 50
236.1048455
 43
17.39130435
  0
INSERT
  8
SHR
  6
CONTINUOUS
  2
FLTRACE
 10
1299.42921801
 20
-19403.78662327
 30
0.0
 41
17.39130435
 42
17.39130435
 50
236.1048455
 43
17.39130435
  0
INSERT
  8
SHR
  6
CONTINUOUS
  2
FLTRACE
 10
1105.45533526
 20
-19692.50295391
 30
0.0
 41
17.39130435
 42
17.39130435
 50
236.1048455
 43
17.39130435
  0
INSERT
  8
SHR
  6
CONTINUOUS
  2
FLTRACE
 10
3085.45700412
 20
-18392.93978827
 30
0.0
 41
17.39130435
 42
17.39130435
 50
241.58643983
 43
17.39130435
  0
INSERT
  8
SHR
  6
CONTINUOUS
  2
FLTRACE
 10
2919.95008872
 20
-18698.86534738
 30
0.0
 41
17.39130435
 42
17.39130435
 50
241.58643983
 43
17.39130435
  0
INSERT
  8
SHR
  6
CONTINUOUS
  2
FLTRACE
 10
2754.44317331
 20
-19004.7909065
 30
0.0
 41
17.39130435
 42
17.39130435
 50
241.58643983
 43
17.39130435
  0
INSERT
  8
SHR
  6
CONTINUOUS
  2
FLTRACE
 10
2588.93625791
 20
-19310.71646561
 30
0.0
 41
17.39130435
 42
17.39130435
 50
241.58643983
 43
17.39130435
  0
INSERT
  8
SHR
  6
CONTINUOUS
  2
FLTRACE
 10
2423.4293425
 20
-19616.64202473
 30
0.0
 41
17.39130435
 42
17.39130435
 50
241.58643983
 43
17.39130435
  0
INSERT
  8
SHR
  6
CONTINUOUS
  2
FLTRACE
 10
2257.9224271
 20
-19922.56758385
 30
0.0
 41
17.39130435
 42
17.39130435
 50
241.58643983
 43
17.39130435
  0
INSERT
  8
SHR
  6
CONTINUOUS
  2
FLTRACE
 10
2092.41551169
 20
-20228.49314296
 30
0.0
 41
17.39130435
 42
17.39130435
 50
241.58643983
 43
17.39130435
  0
INSERT
  8
SHR
  6
CONTINUOUS
  2
FLTRACE
 10
1926.90859629
 20
-20534.41870208
 30
0.0
 41
17.39130435
 42
17.39130435
 50
241.58643983
 43
17.39130435
  0
INSERT
  8
SHR
  6
CONTINUOUS
  2
FLTRACE
 10
1864.5919671
 20
-18282.38014125
 30
0.0
 41
17.39130435
 42
17.39130435
 50
315.52923547
 43
17.39130435
  0
INSERT
  8
SHR
  6
CONTINUOUS
  2
FLTRACE
 10
2112.80344498
 20
-18526.04804849
 30
0.0
 41
17.39130435
 42
17.39130435
 50
315.52923547
 43
17.39130435
  0
INSERT
  8
SHR
  6
CONTINUOUS
  2
FLTRACE
 10
2361.01492286
 20
-18769.71595572
 30
0.0
 41
17.39130435
 42
17.39130435
 50
315.52923547
 43
17.39130435
  0
INSERT
  8
SHR
  6
CONTINUOUS
  2
FLTRACE
 10
2609.22640073
 20
-19013.38386296
 30
0.0
 41
17.39130435
 42
17.39130435
 50
315.52923547
 43
17.39130435
  0
INSERT
  8
SHR
  6
CONTINUOUS
  2
FLTRACE
 10
2857.43787861
 20
-19257.0517702
 30
0.0
 41
17.39130435
 42
17.39130435
 50
315.52923547
 43
17.39130435
  0
INSERT
  8
SHR
  6
CONTINUOUS
  2
FLTRACE
 10
3105.64935649
 20
-19500.71967743
 30
0.0
 41
17.39130435
 42
17.39130435
 50
315.52923547
 43
17.39130435
  0
INSERT
  8
SHR
  6
CONTINUOUS
  2
FLTRACE
 10
3353.86083437
 20
-19744.38758467
 30
0.0
 41
17.39130435
 42
17.39130435
 50
315.52923547
 43
17.39130435
  0
INSERT
  8
SHR
  6
CONTINUOUS
  2
FLTRACE
 10
3602.07231225
 20
-19988.0554919
 30
0.0
 41
17.39130435
 42
17.39130435
 50
315.52923547
 43
17.39130435
  0
INSERT
  8
SHR
  6
CONTINUOUS
  2
FLTRACE
 10
12907.78122418
 20
-18854.81726099
 30
0.0
 41
17.39130435
 42
17.39130435
 50
334.17819013
 43
17.39130435
  0
INSERT
  8
SHR
  6
CONTINUOUS
  2
FLTRACE
 10
13220.87793155
 20
-19006.32118371
 30
0.0
 41
17.39130435
 42
17.39130435
 50
334.17819013
 43
17.39130435
  0
INSERT
  8
SHR
  6
CONTINUOUS
  2
FLTRACE
 10
13533.97463893
 20
-19157.82510642
 30
0.0
 41
17.39130435
 42
17.39130435
 50
334.17819013
 43
17.39130435
  0
INSERT
  8
SHR
  6
CONTINUOUS
  2
FLTRACE
 10
13847.0713463
 20
-19309.32902914
 30
0.0
 41
17.39130435
 42
17.39130435
 50
334.17819013
 43
17.39130435
  0
INSERT
  8
SHR
  6
CONTINUOUS
  2
FLTRACE
 10
14160.16805368
 20
-19460.83295185
 30
0.0
 41
17.39130435
 42
17.39130435
 50
334.17819013
 43
17.39130435
  0
INSERT
  8
SHR
  6
CONTINUOUS
  2
FLTRACE
 10
14473.26476105
 20
-19612.33687457
 30
0.0
 41
17.39130435
 42
17.39130435
 50
334.17819013
 43
17.39130435
  0
INSERT
  8
SHR
  6
CONTINUOUS
  2
FLTRACE
 10
14786.36146843
 20
-19763.84079729
 30
0.0
 41
17.39130435
 42
17.39130435
 50
334.17819013
 43
17.39130435
  0
INSERT
  8
SHR
  6
CONTINUOUS
  2
FLTRACE
 10
15099.4581758
 20
-19915.34472
 30
0.0
 41
17.39130435
 42
17.39130435
 50
334.17819013
 43
17.39130435
  0
INSERT
  8
SHR
  6
CONTINUOUS
  2
FLTRACE
 10
15412.55488318
 20
-20066.84864272
 30
0.0
 41
17.39130435
 42
17.39130435
 50
334.17819013
 43
17.39130435
  0
INSERT
  8
SHR
  6
CONTINUOUS
  2
FLTRACE
 10
15725.65159055
 20
-20218.35256543
 30
0.0
 41
17.39130435
 42
17.39130435
 50
334.17819013
 43
17.39130435
  0
INSERT
  8
SHR
  6
CONTINUOUS
  2
FLTRACE
 10
16038.74829793
 20
-20369.85648815
 30
0.0
 41
17.39130435
 42
17.39130435
 50
334.17819013
 43
17.39130435
  0
INSERT
  8
SHR
  6
CONTINUOUS
  2
FLTRACE
 10
16351.8450053
 20
-20521.36041087
 30
0.0
 41
17.39130435
 42
17.39130435
 50
334.17819013
 43
17.39130435
  0
INSERT
  8
SHR
  6
CONTINUOUS
  2
FLTRACE
 10
16664.94171268
 20
-20672.86433358
 30
0.0
 41
17.39130435
 42
17.39130435
 50
334.17819013
 43
17.39130435
  0
INSERT
  8
SHR
  6
CONTINUOUS
  2
FLTRACE
 10
16978.03842005
 20
-20824.3682563
 30
0.0
 41
17.39130435
 42
17.39130435
 50
334.17819013
 43
17.39130435
  0
INSERT
  8
SHR
  6
CONTINUOUS
  2
FLTRACE
 10
17291.13512743
 20
-20975.87217901
 30
0.0
 41
17.39130435
 42
17.39130435
 50
334.17819013
 43
17.39130435
  0
INSERT
  8
SHR
  6
CONTINUOUS
  2
FLTRACE
 10
18846.88399341
 20
-11859.73748903
 30
0.0
 41
17.39130435
 42
17.39130435
 50
332.04638565
 43
17.39130435
  0
INSERT
  8
SHR
  6
CONTINUOUS
  2
FLTRACE
 10
19154.12829928
 20
-12022.78325954
 30
0.0
 41
17.39130435
 42
17.39130435
 50
332.04638565
 43
17.39130435
  0
INSERT
  8
SHR
  6
CONTINUOUS
  2
FLTRACE
 10
19461.37260514
 20
-12185.82903006
 30
0.0
 41
17.39130435
 42
17.39130435
 50
332.04638565
 43
17.39130435
  0
INSERT
  8
SHR
  6
CONTINUOUS
  2
FLTRACE
 10
19768.616911
 20
-12348.87480057
 30
0.0
 41
17.39130435
 42
17.39130435
 50
332.04638565
 43
17.39130435
  0
INSERT
  8
SHR
  6
CONTINUOUS
  2
FLTRACE
 10
20075.86121686
 20
-12511.92057109
 30
0.0
 41
17.39130435
 42
17.39130435
 50
332.04638565
 43
17.39130435
  0
INSERT
  8
SHR
  6
CONTINUOUS
  2
FLTRACE
 10
20383.10552273
 20
-12674.9663416
 30
0.0
 41
17.39130435
 42
17.39130435
 50
332.04638565
 43
17.39130435
  0
INSERT
  8
SHR
  6
CONTINUOUS
  2
FLTRACE
 10
3146.79706271
 20
-20604.86009465
 30
0.0
 41
17.39130435
 42
17.39130435
 50
312.78753673
 43
17.39130435
  0
INSERT
  8
SHR
  6
CONTINUOUS
  2
FLTRACE
 10
3383.06895262
 20
-20860.12188342
 30
0.0
 41
17.39130435
 42
17.39130435
 50
312.78753673
 43
17.39130435
  0
INSERT
  8
SHR
  6
CONTINUOUS
  2
FLTRACE
 10
3619.34084253
 20
-21115.38367219
 30
0.0
 41
17.39130435
 42
17.39130435
 50
312.78753673
 43
17.39130435
  0
INSERT
  8
SHR
  6
CONTINUOUS
  2
FLTRACE
 10
3855.61273244
 20
-21370.64546096
 30
0.0
 41
17.39130435
 42
17.39130435
 50
312.78753673
 43
17.39130435
  0
INSERT
  8
SHR
  6
CONTINUOUS
  2
FLTRACE
 10
4091.88462235
 20
-21625.90724973
 30
0.0
 41
17.39130435
 42
17.39130435
 50
312.78753673
 43
17.39130435
  0
INSERT
  8
SHR
  6
CONTINUOUS
  2
FLTRACE
 10
4328.15651226
 20
-21881.1690385
 30
0.0
 41
17.39130435
 42
17.39130435
 50
312.78753673
 43
17.39130435
  0
INSERT
  8
SHR
  6
CONTINUOUS
  2
FLTRACE
 10
4564.42840217
 20
-22136.43082727
 30
0.0
 41
17.39130435
 42
17.39130435
 50
312.78753673
 43
17.39130435
  0
INSERT
  8
SHR
  6
CONTINUOUS
  2
FLTRACE
 10
4800.70029208
 20
-22391.69261604
 30
0.0
 41
17.39130435
 42
17.39130435
 50
312.78753673
 43
17.39130435
  0
INSERT
  8
SHR
  6
CONTINUOUS
  2
FLTRACE
 10
6266.23584855
 20
-23218.28648757
 30
0.0
 41
17.39130435
 42
17.39130435
 50
315.30060025
 43
17.39130435
  0
INSERT
  8
SHR
  6
CONTINUOUS
  2
FLTRACE
 10
6513.47301126
 20
-23462.94292452
 30
0.0
 41
17.39130435
 42
17.39130435
 50
315.30060025
 43
17.39130435
  0
INSERT
  8
SHR
  6
CONTINUOUS
  2
FLTRACE
 10
6760.71017397
 20
-23707.59936147
 30
0.0
 41
17.39130435
 42
17.39130435
 50
315.30060025
 43
17.39130435
  0
INSERT
  8
SHR
  6
CONTINUOUS
  2
FLTRACE
 10
7007.94733668
 20
-23952.25579842
 30
0.0
 41
17.39130435
 42
17.39130435
 50
315.30060025
 43
17.39130435
  0
INSERT
  8
SHR
  6
CONTINUOUS
  2
FLTRACE
 10
7255.1844994
 20
-24196.91223537
 30
0.0
 41
17.39130435
 42
17.39130435
 50
315.30060025
 43
17.39130435
  0
INSERT
  8
SHR
  6
CONTINUOUS
  2
FLTRACE
 10
7502.42166211
 20
-24441.56867232
 30
0.0
 41
17.39130435
 42
17.39130435
 50
315.30060025
 43
17.39130435
  0
INSERT
  8
SHR
  6
CONTINUOUS
  2
FLTRACE
 10
7749.65882482
 20
-24686.22510927
 30
0.0
 41
17.39130435
 42
17.39130435
 50
315.30060025
 43
17.39130435
  0
INSERT
  8
SHR
  6
CONTINUOUS
  2
FLTRACE
 10
7996.89598753
 20
-24930.88154623
 30
0.0
 41
17.39130435
 42
17.39130435
 50
315.30060025
 43
17.39130435
  0
INSERT
  8
SHR
  6
CONTINUOUS
  2
FLTRACE
 10
4878.16968409
 20
-23939.10629146
 30
0.0
 41
17.39130435
 42
17.39130435
 50
316.39152719
 43
17.39130435
  0
INSERT
  8
SHR
  6
CONTINUOUS
  2
FLTRACE
 10
5130.02007492
 20
-24179.01120472
 30
0.0
 41
17.39130435
 42
17.39130435
 50
316.39152719
 43
17.39130435
  0
INSERT
  8
SHR
  6
CONTINUOUS
  2
FLTRACE
 10
5381.87046574
 20
-24418.91611799
 30
0.0
 41
17.39130435
 42
17.39130435
 50
316.39152719
 43
17.39130435
  0
INSERT
  8
SHR
  6
CONTINUOUS
  2
FLTRACE
 10
5633.72085657
 20
-24658.82103125
 30
0.0
 41
17.39130435
 42
17.39130435
 50
316.39152719
 43
17.39130435
  0
INSERT
  8
SHR
  6
CONTINUOUS
  2
FLTRACE
 10
5885.57124739
 20
-24898.72594452
 30
0.0
 41
17.39130435
 42
17.39130435
 50
316.39152719
 43
17.39130435
  0
INSERT
  8
SHR
  6
CONTINUOUS
  2
FLTRACE
 10
6137.42163822
 20
-25138.63085778
 30
0.0
 41
17.39130435
 42
17.39130435
 50
316.39152719
 43
17.39130435
  0
INSERT
  8
SHR
  6
CONTINUOUS
  2
FLTRACE
 10
6389.27202904
 20
-25378.53577105
 30
0.0
 41
17.39130435
 42
17.39130435
 50
316.39152719
 43
17.39130435
  0
INSERT
  8
SHR
  6
CONTINUOUS
  2
FLTRACE
 10
6688.18985698
 20
-25554.74107429
 30
0.0
 41
17.39130435
 42
17.39130435
 50
330.68732081
 43
17.39130435
  0
INSERT
  8
SHR
  6
CONTINUOUS
  2
FLTRACE
 10
-6025.52040749
 20
-11244.38576946
 30
0.0
 41
17.39130435
 42
17.39130435
 50
237.74341474
 43
17.39130435
  0
INSERT
  8
SHR
  6
CONTINUOUS
  2
FLTRACE
 10
-6211.1592651
 20
-11538.53063396
 30
0.0
 41
17.39130435
 42
17.39130435
 50
237.74341474
 43
17.39130435
  0
INSERT
  8
SHR
  6
CONTINUOUS
  2
FLTRACE
 10
-6396.79812271
 20
-11832.67549847
 30
0.0
 41
17.39130435
 42
17.39130435
 50
237.74341474
 43
17.39130435
  0
INSERT
  8
SHR
  6
CONTINUOUS
  2
FLTRACE
 10
-6582.43698032
 20
-12126.82036297
 30
0.0
 41
17.39130435
 42
17.39130435
 50
237.74341474
 43
17.39130435
  0
INSERT
  8
SHR
  6
CONTINUOUS
  2
FLTRACE
 10
-6768.07583793
 20
-12420.96522747
 30
0.0
 41
17.39130435
 42
17.39130435
 50
237.74341474
 43
17.39130435
  0
INSERT
  8
SHR
  6
CONTINUOUS
  2
FLTRACE
 10
-6953.71469554
 20
-12715.11009197
 30
0.0
 41
17.39130435
 42
17.39130435
 50
237.74341474
 43
17.39130435
  0
INSERT
  8
SHR
  6
CONTINUOUS
  2
FLTRACE
 10
-4366.37075832
 20
-11253.11416265
 30
0.0
 41
17.39130435
 42
17.39130435
 50
231.88922785
 43
17.39130435
  0
INSERT
  8
SHR
  6
CONTINUOUS
  2
FLTRACE
 10
-4581.0433898
 20
-11526.79033636
 30
0.0
 41
17.39130435
 42
17.39130435
 50
231.88922785
 43
17.39130435
  0
INSERT
  8
SHR
  6
CONTINUOUS
  2
FLTRACE
 10
-4795.71602128
 20
-11800.46651008
 30
0.0
 41
17.39130435
 42
17.39130435
 50
231.88922785
 43
17.39130435
  0
INSERT
  8
SHR
  6
CONTINUOUS
  2
FLTRACE
 10
-5010.38865276
 20
-12074.1426838
 30
0.0
 41
17.39130435
 42
17.39130435
 50
231.88922785
 43
17.39130435
  0
INSERT
  8
SHR
  6
CONTINUOUS
  2
FLTRACE
 10
-5225.06128424
 20
-12347.81885751
 30
0.0
 41
17.39130435
 42
17.39130435
 50
231.88922785
 43
17.39130435
  0
INSERT
  8
SHR
  6
CONTINUOUS
  2
FLTRACE
 10
-5439.73391572
 20
-12621.49503123
 30
0.0
 41
17.39130435
 42
17.39130435
 50
231.88922785
 43
17.39130435
  0
INSERT
  8
SHR
  6
CONTINUOUS
  2
FLTRACE
 10
-5654.4065472
 20
-12895.17120495
 30
0.0
 41
17.39130435
 42
17.39130435
 50
231.88922785
 43
17.39130435
  0
INSERT
  8
SHR
  6
CONTINUOUS
  2
FLTRACE
 10
-6316.39100789
 20
-11253.11416265
 30
0.0
 41
17.39130435
 42
17.39130435
 50
311.30673701
 43
17.39130435
  0
INSERT
  8
SHR
  6
CONTINUOUS
  2
FLTRACE
 10
-6086.79448639
 20
-11514.39643163
 30
0.0
 41
17.39130435
 42
17.39130435
 50
311.30673701
 43
17.39130435
  0
INSERT
  8
SHR
  6
CONTINUOUS
  2
FLTRACE
 10
-5857.1979649
 20
-11775.67870061
 30
0.0
 41
17.39130435
 42
17.39130435
 50
311.30673701
 43
17.39130435
  0
INSERT
  8
SHR
  6
CONTINUOUS
  2
FLTRACE
 10
-5627.6014434
 20
-12036.9609696
 30
0.0
 41
17.39130435
 42
17.39130435
 50
311.30673701
 43
17.39130435
  0
INSERT
  8
SHR
  6
CONTINUOUS
  2
FLTRACE
 10
-5398.00492191
 20
-12298.24323858
 30
0.0
 41
17.39130435
 42
17.39130435
 50
311.30673701
 43
17.39130435
  0
INSERT
  8
SHR
  6
CONTINUOUS
  2
FLTRACE
 10
-1231.10227994
 20
-16616.71177505
 30
0.0
 41
17.39130435
 42
17.39130435
 50
25.98341101
 43
17.39130435
  0
INSERT
  8
SHR
  6
CONTINUOUS
  2
FLTRACE
 10
-918.4341299
 20
-16464.32537565
 30
0.0
 41
17.39130435
 42
17.39130435
 50
25.98341101
 43
17.39130435
  0
INSERT
  8
SHR
  6
CONTINUOUS
  2
FLTRACE
 10
-605.76597987
 20
-16311.93897625
 30
0.0
 41
17.39130435
 42
17.39130435
 50
25.98341101
 43
17.39130435
  0
INSERT
  8
SHR
  6
CONTINUOUS
  2
FLTRACE
 10
-293.09782983
 20
-16159.55257686
 30
0.0
 41
17.39130435
 42
17.39130435
 50
25.98341101
 43
17.39130435
  0
INSERT
  8
SHR
  6
CONTINUOUS
  2
FLTRACE
 10
19.57032021
 20
-16007.16617746
 30
0.0
 41
17.39130435
 42
17.39130435
 50
25.98341101
 43
17.39130435
  0
INSERT
  8
SHR
  6
CONTINUOUS
  2
FLTRACE
 10
332.23847024
 20
-15854.77977806
 30
0.0
 41
17.39130435
 42
17.39130435
 50
25.98341101
 43
17.39130435
  0
INSERT
  8
SHR
  6
CONTINUOUS
  2
FLTRACE
 10
644.90662028
 20
-15702.39337867
 30
0.0
 41
17.39130435
 42
17.39130435
 50
25.98341101
 43
17.39130435
  0
INSERT
  8
SHR
  6
CONTINUOUS
  2
FLTRACE
 10
961.06462805
 20
-15557.44270554
 30
0.0
 41
17.39130435
 42
17.39130435
 50
24.30134716
 43
17.39130435
  0
INSERT
  8
SHR
  6
CONTINUOUS
  2
FLTRACE
 10
1278.07109787
 20
-15414.29982287
 30
0.0
 41
17.39130435
 42
17.39130435
 50
24.30134716
 43
17.39130435
  0
INSERT
  8
SHR
  6
CONTINUOUS
  2
FLTRACE
 10
1595.07756769
 20
-15271.1569402
 30
0.0
 41
17.39130435
 42
17.39130435
 50
24.30134716
 43
17.39130435
  0
INSERT
  8
SHR
  6
CONTINUOUS
  2
FLTRACE
 10
1912.08403751
 20
-15128.01405753
 30
0.0
 41
17.39130435
 42
17.39130435
 50
24.30134716
 43
17.39130435
  0
INSERT
  8
SHR
  6
CONTINUOUS
  2
FLTRACE
 10
2229.09050734
 20
-14984.87117486
 30
0.0
 41
17.39130435
 42
17.39130435
 50
24.30134716
 43
17.39130435
  0
INSERT
  8
SHR
  6
CONTINUOUS
  2
FLTRACE
 10
2546.09697716
 20
-14841.72829219
 30
0.0
 41
17.39130435
 42
17.39130435
 50
24.30134716
 43
17.39130435
  0
INSERT
  8
SHR
  6
CONTINUOUS
  2
FLTRACE
 10
2863.10344698
 20
-14698.58540952
 30
0.0
 41
17.39130435
 42
17.39130435
 50
24.30134716
 43
17.39130435
  0
INSERT
  8
SHR
  6
CONTINUOUS
  2
FLTRACE
 10
3051.81890748
 20
-14585.17826115
 30
0.0
 41
17.39130435
 42
17.39130435
 50
27.25220033
 43
17.39130435
  0
INSERT
  8
SHR
  6
CONTINUOUS
  2
FLTRACE
 10
3361.03614474
 20
-14425.90589397
 30
0.0
 41
17.39130435
 42
17.39130435
 50
27.25220033
 43
17.39130435
  0
INSERT
  8
SHR
  6
CONTINUOUS
  2
FLTRACE
 10
3670.253382
 20
-14266.63352679
 30
0.0
 41
17.39130435
 42
17.39130435
 50
27.25220033
 43
17.39130435
  0
INSERT
  8
SHR
  6
CONTINUOUS
  2
FLTRACE
 10
3979.47061926
 20
-14107.36115961
 30
0.0
 41
17.39130435
 42
17.39130435
 50
27.25220033
 43
17.39130435
  0
INSERT
  8
SHR
  6
CONTINUOUS
  2
FLTRACE
 10
4288.68785653
 20
-13948.08879243
 30
0.0
 41
17.39130435
 42
17.39130435
 50
27.25220033
 43
17.39130435
  0
INSERT
  8
SHR
  6
CONTINUOUS
  2
FLTRACE
 10
4597.90509379
 20
-13788.81642525
 30
0.0
 41
17.39130435
 42
17.39130435
 50
27.25220033
 43
17.39130435
  0
INSERT
  8
SHR
  6
CONTINUOUS
  2
FLTRACE
 10
4907.64728892
 20
-13630.56875895
 30
0.0
 41
17.39130435
 42
17.39130435
 50
27.00024628
 43
17.39130435
  0
INSERT
  8
SHR
  6
CONTINUOUS
  2
FLTRACE
 10
5217.56192292
 20
-13472.65768777
 30
0.0
 41
17.39130435
 42
17.39130435
 50
27.00024628
 43
17.39130435
  0
INSERT
  8
SHR
  6
CONTINUOUS
  2
FLTRACE
 10
5527.47655692
 20
-13314.7466166
 30
0.0
 41
17.39130435
 42
17.39130435
 50
27.00024628
 43
17.39130435
  0
INSERT
  8
SHR
  6
CONTINUOUS
  2
FLTRACE
 10
5826.22672832
 20
-13136.95764644
 30
0.0
 41
17.39130435
 42
17.39130435
 50
31.64142057
 43
17.39130435
  0
INSERT
  8
SHR
  6
CONTINUOUS
  2
FLTRACE
 10
6122.34774012
 20
-12954.4875581
 30
0.0
 41
17.39130435
 42
17.39130435
 50
31.64142057
 43
17.39130435
  0
INSERT
  8
SHR
  6
CONTINUOUS
  2
FLTRACE
 10
4010.77878731
 20
-12178.83580048
 30
0.0
 41
17.39130435
 42
17.39130435
 50
28.75557331
 43
17.39130435
  0
INSERT
  8
SHR
  6
CONTINUOUS
  2
FLTRACE
 10
4315.71094888
 20
-12011.50569678
 30
0.0
 41
17.39130435
 42
17.39130435
 50
28.75557331
 43
17.39130435
  0
INSERT
  8
SHR
  6
CONTINUOUS
  2
FLTRACE
 10
3930.36684336
 20
-11655.34761527
 30
0.0
 41
17.39130435
 42
17.39130435
 50
338.48480903
 43
17.39130435
  0
INSERT
  8
SHR
  6
CONTINUOUS
  2
FLTRACE
 10
4253.95653515
 20
-11782.91210145
 30
0.0
 41
17.39130435
 42
17.39130435
 50
338.48480903
 43
17.39130435
  0
INSERT
  8
SHR
  6
CONTINUOUS
  2
FLTRACE
 10
4577.26925554
 20
-11911.07174267
 30
0.0
 41
17.39130435
 42
17.39130435
 50
331.60283197
 43
17.39130435
  0
INSERT
  8
SHR
  6
CONTINUOUS
  2
FLTRACE
 10
4883.24215313
 20
-12076.49112699
 30
0.0
 41
17.39130435
 42
17.39130435
 50
331.60283197
 43
17.39130435
  0
INSERT
  8
SHR
  6
CONTINUOUS
  2
FLTRACE
 10
5189.21505072
 20
-12241.91051131
 30
0.0
 41
17.39130435
 42
17.39130435
 50
331.60283197
 43
17.39130435
  0
INSERT
  8
SHR
  6
CONTINUOUS
  2
FLTRACE
 10
5495.18794831
 20
-12407.32989563
 30
0.0
 41
17.39130435
 42
17.39130435
 50
331.60283197
 43
17.39130435
  0
INSERT
  8
SHR
  6
CONTINUOUS
  2
FLTRACE
 10
8745.56144237
 20
-16767.27655749
 30
0.0
 41
17.39130435
 42
17.39130435
 50
311.69876802
 43
17.39130435
  0
INSERT
  8
SHR
  6
CONTINUOUS
  2
FLTRACE
 10
8976.94032941
 20
-17026.98176999
 30
0.0
 41
17.39130435
 42
17.39130435
 50
311.69876802
 43
17.39130435
  0
INSERT
  8
SHR
  6
CONTINUOUS
  2
FLTRACE
 10
9208.31921646
 20
-17286.68698248
 30
0.0
 41
17.39130435
 42
17.39130435
 50
311.69876802
 43
17.39130435
  0
INSERT
  8
SHR
  6
CONTINUOUS
  2
FLTRACE
 10
9439.6981035
 20
-17546.39219498
 30
0.0
 41
17.39130435
 42
17.39130435
 50
311.69876802
 43
17.39130435
  0
INSERT
  8
SHR
  6
CONTINUOUS
  2
FLTRACE
 10
9671.07699055
 20
-17806.09740747
 30
0.0
 41
17.39130435
 42
17.39130435
 50
311.69876802
 43
17.39130435
  0
INSERT
  8
SHR
  6
CONTINUOUS
  2
FLTRACE
 10
9902.4558776
 20
-18065.80261997
 30
0.0
 41
17.39130435
 42
17.39130435
 50
311.69876802
 43
17.39130435
  0
INSERT
  8
SHR
  6
CONTINUOUS
  2
FLTRACE
 10
10133.83476464
 20
-18325.50783246
 30
0.0
 41
17.39130435
 42
17.39130435
 50
311.69876802
 43
17.39130435
  0
INSERT
  8
SHR
  6
CONTINUOUS
  2
FLTRACE
 10
10365.21365169
 20
-18585.21304496
 30
0.0
 41
17.39130435
 42
17.39130435
 50
311.69876802
 43
17.39130435
  0
INSERT
  8
SHR
  6
CONTINUOUS
  2
FLTRACE
 10
10596.59253873
 20
-18844.91825745
 30
0.0
 41
17.39130435
 42
17.39130435
 50
311.69876802
 43
17.39130435
  0
INSERT
  8
SHR
  6
CONTINUOUS
  2
FLTRACE
 10
10447.25339024
 20
-18240.92027362
 30
0.0
 41
17.39130435
 42
17.39130435
 50
56.46900546
 43
17.39130435
  0
INSERT
  8
SHR
  6
CONTINUOUS
  2
FLTRACE
 10
10639.38834703
 20
-17950.97692545
 30
0.0
 41
17.39130435
 42
17.39130435
 50
56.46900546
 43
17.39130435
  0
INSERT
  8
SHR
  6
CONTINUOUS
  2
FLTRACE
 10
10831.52330383
 20
-17661.03357729
 30
0.0
 41
17.39130435
 42
17.39130435
 50
56.46900546
 43
17.39130435
  0
INSERT
  8
SHR
  6
CONTINUOUS
  2
FLTRACE
 10
11023.65826062
 20
-17371.09022912
 30
0.0
 41
17.39130435
 42
17.39130435
 50
56.46900546
 43
17.39130435
  0
INSERT
  8
SHR
  6
CONTINUOUS
  2
FLTRACE
 10
11215.79321741
 20
-17081.14688095
 30
0.0
 41
17.39130435
 42
17.39130435
 50
56.46900546
 43
17.39130435
  0
INSERT
  8
SHR
  6
CONTINUOUS
  2
FLTRACE
 10
11407.9281742
 20
-16791.20353278
 30
0.0
 41
17.39130435
 42
17.39130435
 50
56.46900546
 43
17.39130435
  0
INSERT
  8
SHR
  6
CONTINUOUS
  2
FLTRACE
 10
11600.06313099
 20
-16501.26018462
 30
0.0
 41
17.39130435
 42
17.39130435
 50
56.46900546
 43
17.39130435
  0
INSERT
  8
SHR
  6
CONTINUOUS
  2
FLTRACE
 10
11792.19808778
 20
-16211.31683645
 30
0.0
 41
17.39130435
 42
17.39130435
 50
56.46900546
 43
17.39130435
  0
INSERT
  8
SHR
  6
CONTINUOUS
  2
FLTRACE
 10
11984.33304457
 20
-15921.37348828
 30
0.0
 41
17.39130435
 42
17.39130435
 50
56.46900546
 43
17.39130435
  0
INSERT
  8
SHR
  6
CONTINUOUS
  2
FLTRACE
 10
12176.46800136
 20
-15631.43014012
 30
0.0
 41
17.39130435
 42
17.39130435
 50
56.46900546
 43
17.39130435
  0
INSERT
  8
SHR
  6
CONTINUOUS
  2
FLTRACE
 10
12368.60295815
 20
-15341.48679195
 30
0.0
 41
17.39130435
 42
17.39130435
 50
56.46900546
 43
17.39130435
  0
INSERT
  8
SHR
  6
CONTINUOUS
  2
FLTRACE
 10
12560.73791495
 20
-15051.54344378
 30
0.0
 41
17.39130435
 42
17.39130435
 50
56.46900546
 43
17.39130435
  0
INSERT
  8
SHR
  6
CONTINUOUS
  2
FLTRACE
 10
13286.70448931
 20
-15130.70283524
 30
0.0
 41
17.39130435
 42
17.39130435
 50
327.92538648
 43
17.39130435
  0
INSERT
  8
SHR
  6
CONTINUOUS
  2
FLTRACE
 10
13581.43745943
 20
-15315.40655229
 30
0.0
 41
17.39130435
 42
17.39130435
 50
327.92538648
 43
17.39130435
  0
INSERT
  8
SHR
  6
CONTINUOUS
  2
FLTRACE
 10
13876.17042955
 20
-15500.11026934
 30
0.0
 41
17.39130435
 42
17.39130435
 50
327.92538648
 43
17.39130435
  0
INSERT
  8
SHR
  6
CONTINUOUS
  2
FLTRACE
 10
14170.90339967
 20
-15684.81398639
 30
0.0
 41
17.39130435
 42
17.39130435
 50
327.92538648
 43
17.39130435
  0
INSERT
  8
SHR
  6
CONTINUOUS
  2
FLTRACE
 10
14465.63636979
 20
-15869.51770343
 30
0.0
 41
17.39130435
 42
17.39130435
 50
327.92538648
 43
17.39130435
  0
INSERT
  8
SHR
  6
CONTINUOUS
  2
FLTRACE
 10
14760.36933991
 20
-16054.22142048
 30
0.0
 41
17.39130435
 42
17.39130435
 50
327.92538648
 43
17.39130435
  0
INSERT
  8
SHR
  6
CONTINUOUS
  2
FLTRACE
 10
5448.44015423
 20
-14683.91793861
 30
0.0
 41
17.39130435
 42
17.39130435
 50
321.45913472
 43
17.39130435
  0
INSERT
  8
SHR
  6
CONTINUOUS
  2
FLTRACE
 10
5720.49718361
 20
-14900.63886406
 30
0.0
 41
17.39130435
 42
17.39130435
 50
321.45913472
 43
17.39130435
  0
INSERT
  8
SHR
  6
CONTINUOUS
  2
FLTRACE
 10
5992.55421299
 20
-15117.35978952
 30
0.0
 41
17.39130435
 42
17.39130435
 50
321.45913472
 43
17.39130435
  0
INSERT
  8
SHR
  6
CONTINUOUS
  2
FLTRACE
 10
6264.61124237
 20
-15334.08071498
 30
0.0
 41
17.39130435
 42
17.39130435
 50
321.45913472
 43
17.39130435
  0
INSERT
  8
SHR
  6
CONTINUOUS
  2
FLTRACE
 10
6537.73655884
 20
-15549.43084835
 30
0.0
 41
17.39130435
 42
17.39130435
 50
321.45913472
 43
17.39130435
  0
INSERT
  8
SHR
  6
CONTINUOUS
  2
FLTRACE
 10
-1938.49166524
 20
-19896.40551444
 30
0.0
 41
17.39130435
 42
17.39130435
 50
21.39347596
 43
17.39130435
  0
INSERT
  8
SHR
  6
CONTINUOUS
  2
FLTRACE
 10
-3857.60137104
 20
-20948.59466973
 30
0.0
 41
17.39130435
 42
17.39130435
 50
34.48938865
 43
17.39130435
  0
INSERT
  8
SHR
  6
CONTINUOUS
  2
FLTRACE
 10
-3570.91230161
 20
-20751.636897
 30
0.0
 41
17.39130435
 42
17.39130435
 50
34.48938865
 43
17.39130435
  0
INSERT
  8
SHR
  6
CONTINUOUS
  2
FLTRACE
 10
-4260.50968947
 20
-17536.02732273
 30
0.0
 41
17.39130435
 42
17.39130435
 50
192.58959588
 43
17.39130435
  0
INSERT
  8
SHR
  6
CONTINUOUS
  2
FLTRACE
 10
-4599.97277038
 20
-17611.84159227
 30
0.0
 41
17.39130435
 42
17.39130435
 50
192.58959588
 43
17.39130435
  0
INSERT
  8
SHR
  6
CONTINUOUS
  2
FLTRACE
 10
-4939.43585129
 20
-17687.6558618
 30
0.0
 41
17.39130435
 42
17.39130435
 50
192.58959588
 43
17.39130435
  0
INSERT
  8
SHR
  6
CONTINUOUS
  2
FLTRACE
 10
-5278.8989322
 20
-17763.47013134
 30
0.0
 41
17.39130435
 42
17.39130435
 50
192.58959588
 43
17.39130435
  0
INSERT
  8
SHR
  6
CONTINUOUS
  2
FLTRACE
 10
-5618.36201311
 20
-17839.28440087
 30
0.0
 41
17.39130435
 42
17.39130435
 50
192.58959588
 43
17.39130435
  0
INSERT
  8
SHR
  6
CONTINUOUS
  2
FLTRACE
 10
-5954.78483045
 20
-17927.60737513
 30
0.0
 41
17.39130435
 42
17.39130435
 50
194.73230843
 43
17.39130435
  0
INSERT
  8
SHR
  6
CONTINUOUS
  2
FLTRACE
 10
-6291.17596361
 20
-18016.06070915
 30
0.0
 41
17.39130435
 42
17.39130435
 50
194.73230843
 43
17.39130435
  0
INSERT
  8
SHR
  6
CONTINUOUS
  2
FLTRACE
 10
-6627.56709677
 20
-18104.51404318
 30
0.0
 41
17.39130435
 42
17.39130435
 50
194.73230843
 43
17.39130435
  0
INSERT
  8
SHR
  6
CONTINUOUS
  2
FLTRACE
 10
-6963.95822992
 20
-18192.96737721
 30
0.0
 41
17.39130435
 42
17.39130435
 50
194.73230843
 43
17.39130435
  0
INSERT
  8
SHR
  6
CONTINUOUS
  2
FLTRACE
 10
-7300.34936308
 20
-18281.42071124
 30
0.0
 41
17.39130435
 42
17.39130435
 50
194.73230843
 43
17.39130435
  0
INSERT
  8
SHR
  6
CONTINUOUS
  2
FLTRACE
 10
-7636.74049624
 20
-18369.87404527
 30
0.0
 41
17.39130435
 42
17.39130435
 50
194.73230843
 43
17.39130435
  0
INSERT
  8
SHR
  6
CONTINUOUS
  2
FLTRACE
 10
-7973.1316294
 20
-18458.32737929
 30
0.0
 41
17.39130435
 42
17.39130435
 50
194.73230843
 43
17.39130435
  0
INSERT
  8
SHR
  6
CONTINUOUS
  2
FLTRACE
 10
-8309.52276255
 20
-18546.78071332
 30
0.0
 41
17.39130435
 42
17.39130435
 50
194.73230843
 43
17.39130435
  0
INSERT
  8
SHR
  6
CONTINUOUS
  2
FLTRACE
 10
-7394.31272959
 20
-16661.28132023
 30
0.0
 41
17.39130435
 42
17.39130435
 50
22.4727279
 43
17.39130435
  0
INSERT
  8
SHR
  6
CONTINUOUS
  2
FLTRACE
 10
-7072.90000594
 20
-16528.32701289
 30
0.0
 41
17.39130435
 42
17.39130435
 50
22.4727279
 43
17.39130435
  0
INSERT
  8
SHR
  6
CONTINUOUS
  2
FLTRACE
 10
-6751.48728228
 20
-16395.37270555
 30
0.0
 41
17.39130435
 42
17.39130435
 50
22.4727279
 43
17.39130435
  0
INSERT
  8
SHR
  6
CONTINUOUS
  2
FLTRACE
 10
-6430.07455863
 20
-16262.41839821
 30
0.0
 41
17.39130435
 42
17.39130435
 50
22.4727279
 43
17.39130435
  0
INSERT
  8
SHR
  6
CONTINUOUS
  2
FLTRACE
 10
-6108.66183497
 20
-16129.46409088
 30
0.0
 41
17.39130435
 42
17.39130435
 50
22.4727279
 43
17.39130435
  0
INSERT
  8
SHR
  6
CONTINUOUS
  2
FLTRACE
 10
-5787.24911131
 20
-15996.50978354
 30
0.0
 41
17.39130435
 42
17.39130435
 50
22.4727279
 43
17.39130435
  0
INSERT
  8
SHR
  6
CONTINUOUS
  2
FLTRACE
 10
-5465.83638766
 20
-15863.5554762
 30
0.0
 41
17.39130435
 42
17.39130435
 50
22.4727279
 43
17.39130435
  0
INSERT
  8
SHR
  6
CONTINUOUS
  2
FLTRACE
 10
-5144.423664
 20
-15730.60116886
 30
0.0
 41
17.39130435
 42
17.39130435
 50
22.4727279
 43
17.39130435
  0
INSERT
  8
SHR
  6
CONTINUOUS
  2
FLTRACE
 10
-4823.01094035
 20
-15597.64686153
 30
0.0
 41
17.39130435
 42
17.39130435
 50
22.4727279
 43
17.39130435
  0
INSERT
  8
SHR
  6
CONTINUOUS
  2
FLTRACE
 10
-4501.59821669
 20
-15464.69255419
 30
0.0
 41
17.39130435
 42
17.39130435
 50
22.4727279
 43
17.39130435
  0
INSERT
  8
SHR
  6
CONTINUOUS
  2
FLTRACE
 10
-4180.18549304
 20
-15331.73824685
 30
0.0
 41
17.39130435
 42
17.39130435
 50
22.4727279
 43
17.39130435
  0
INSERT
  8
SHR
  6
CONTINUOUS
  2
FLTRACE
 10
-3858.77276938
 20
-15198.78393951
 30
0.0
 41
17.39130435
 42
17.39130435
 50
22.4727279
 43
17.39130435
  0
INSERT
  8
SHR
  6
CONTINUOUS
  2
FLTRACE
 10
-3537.36004572
 20
-15065.82963217
 30
0.0
 41
17.39130435
 42
17.39130435
 50
22.4727279
 43
17.39130435
  0
INSERT
  8
SHR
  6
CONTINUOUS
  2
FLTRACE
 10
-3215.94732207
 20
-14932.87532484
 30
0.0
 41
17.39130435
 42
17.39130435
 50
22.4727279
 43
17.39130435
  0
INSERT
  8
SHR
  6
CONTINUOUS
  2
FLTRACE
 10
-2894.53459841
 20
-14799.9210175
 30
0.0
 41
17.39130435
 42
17.39130435
 50
22.4727279
 43
17.39130435
  0
INSERT
  8
SHR
  6
CONTINUOUS
  2
FLTRACE
 10
-2573.12187476
 20
-14666.96671016
 30
0.0
 41
17.39130435
 42
17.39130435
 50
22.4727279
 43
17.39130435
  0
INSERT
  8
SHR
  6
CONTINUOUS
  2
FLTRACE
 10
-2251.7091511
 20
-14534.01240282
 30
0.0
 41
17.39130435
 42
17.39130435
 50
22.4727279
 43
17.39130435
  0
INSERT
  8
SHR
  6
CONTINUOUS
  2
FLTRACE
 10
-1930.29642744
 20
-14401.05809549
 30
0.0
 41
17.39130435
 42
17.39130435
 50
22.4727279
 43
17.39130435
  0
INSERT
  8
SHR
  6
CONTINUOUS
  2
FLTRACE
 10
-1608.88370379
 20
-14268.10378815
 30
0.0
 41
17.39130435
 42
17.39130435
 50
22.4727279
 43
17.39130435
  0
INSERT
  8
SHR
  6
CONTINUOUS
  2
FLTRACE
 10
-1287.47098013
 20
-14135.14948081
 30
0.0
 41
17.39130435
 42
17.39130435
 50
22.4727279
 43
17.39130435
  0
INSERT
  8
SHR
  6
CONTINUOUS
  2
FLTRACE
 10
-966.05825648
 20
-14002.19517347
 30
0.0
 41
17.39130435
 42
17.39130435
 50
22.4727279
 43
17.39130435
  0
INSERT
  8
SHR
  6
CONTINUOUS
  2
FLTRACE
 10
-644.64553282
 20
-13869.24086614
 30
0.0
 41
17.39130435
 42
17.39130435
 50
22.4727279
 43
17.39130435
  0
INSERT
  8
SHR
  6
CONTINUOUS
  2
FLTRACE
 10
-323.23280917
 20
-13736.2865588
 30
0.0
 41
17.39130435
 42
17.39130435
 50
22.4727279
 43
17.39130435
  0
INSERT
  8
SHR
  6
CONTINUOUS
  2
FLTRACE
 10
-1.82008551
 20
-13603.33225146
 30
0.0
 41
17.39130435
 42
17.39130435
 50
22.4727279
 43
17.39130435
  0
INSERT
  8
SHR
  6
CONTINUOUS
  2
FLTRACE
 10
319.59263815
 20
-13470.37794412
 30
0.0
 41
17.39130435
 42
17.39130435
 50
22.4727279
 43
17.39130435
  0
INSERT
  8
SHR
  6
CONTINUOUS
  2
FLTRACE
 10
5020.69808336
 20
-17051.10536297
 30
0.0
 41
17.39130435
 42
17.39130435
 50
20.92932516
 43
17.39130435
  0
INSERT
  8
SHR
  6
CONTINUOUS
  2
FLTRACE
 10
-3066.3572586
 20
-14672.46219301
 30
0.0
 41
17.39130435
 42
17.39130435
 50
191.23957191
 43
17.39130435
  0
INSERT
  8
SHR
  6
CONTINUOUS
  2
FLTRACE
 10
-3407.51230955
 20
-14740.2576057
 30
0.0
 41
17.39130435
 42
17.39130435
 50
191.23957191
 43
17.39130435
  0
INSERT
  8
SHR
  6
CONTINUOUS
  2
FLTRACE
 10
-3748.66736049
 20
-14808.05301838
 30
0.0
 41
17.39130435
 42
17.39130435
 50
191.23957191
 43
17.39130435
  0
INSERT
  8
SHR
  6
CONTINUOUS
  2
FLTRACE
 10
-4089.82241144
 20
-14875.84843107
 30
0.0
 41
17.39130435
 42
17.39130435
 50
191.23957191
 43
17.39130435
  0
INSERT
  8
SHR
  6
CONTINUOUS
  2
FLTRACE
 10
-4430.97746239
 20
-14943.64384376
 30
0.0
 41
17.39130435
 42
17.39130435
 50
191.23957191
 43
17.39130435
  0
INSERT
  8
SHR
  6
CONTINUOUS
  2
FLTRACE
 10
-4772.13251333
 20
-15011.43925645
 30
0.0
 41
17.39130435
 42
17.39130435
 50
191.23957191
 43
17.39130435
  0
INSERT
  8
SHR
  6
CONTINUOUS
  2
FLTRACE
 10
-5113.28756428
 20
-15079.23466913
 30
0.0
 41
17.39130435
 42
17.39130435
 50
191.23957191
 43
17.39130435
  0
INSERT
  8
SHR
  6
CONTINUOUS
  2
FLTRACE
 10
-5454.44261522
 20
-15147.03008182
 30
0.0
 41
17.39130435
 42
17.39130435
 50
191.23957191
 43
17.39130435
  0
INSERT
  8
SHR
  6
CONTINUOUS
  2
FLTRACE
 10
13507.33082907
 20
-20633.9547386
 30
0.0
 41
17.39130435
 42
17.39130435
 50
338.11564627
 43
17.39130435
  0
INSERT
  8
SHR
  6
CONTINUOUS
  2
FLTRACE
 10
13830.09189843
 20
-20763.60148508
 30
0.0
 41
17.39130435
 42
17.39130435
 50
338.11564627
 43
17.39130435
  0
INSERT
  8
SHR
  6
CONTINUOUS
  2
FLTRACE
 10
14152.85296779
 20
-20893.24823155
 30
0.0
 41
17.39130435
 42
17.39130435
 50
338.11564627
 43
17.39130435
  0
INSERT
  8
SHR
  6
CONTINUOUS
  2
FLTRACE
 10
14475.61403716
 20
-21022.89497802
 30
0.0
 41
17.39130435
 42
17.39130435
 50
338.11564627
 43
17.39130435
  0
INSERT
  8
SHR
  6
CONTINUOUS
  2
FLTRACE
 10
14798.37510652
 20
-21152.54172449
 30
0.0
 41
17.39130435
 42
17.39130435
 50
338.11564627
 43
17.39130435
  0
INSERT
  8
SHR
  6
CONTINUOUS
  2
FLTRACE
 10
15121.13617588
 20
-21282.18847097
 30
0.0
 41
17.39130435
 42
17.39130435
 50
338.11564627
 43
17.39130435
  0
INSERT
  8
SHR
  6
CONTINUOUS
  2
FLTRACE
 10
15443.89724525
 20
-21411.83521744
 30
0.0
 41
17.39130435
 42
17.39130435
 50
338.11564627
 43
17.39130435
  0
INSERT
  8
SHR
  6
CONTINUOUS
  2
FLTRACE
 10
15766.65831461
 20
-21541.48196391
 30
0.0
 41
17.39130435
 42
17.39130435
 50
338.11564627
 43
17.39130435
  0
INSERT
  8
SHR
  6
CONTINUOUS
  2
FLTRACE
 10
2818.26370518
 20
-11945.69931575
 30
0.0
 41
17.39130435
 42
17.39130435
 50
213.82337089
 43
17.39130435
  0
INSERT
  8
SHR
  6
CONTINUOUS
  2
FLTRACE
 10
2529.30457899
 20
-12139.3113251
 30
0.0
 41
17.39130435
 42
17.39130435
 50
213.82337089
 43
17.39130435
  0
INSERT
  8
SHR
  6
CONTINUOUS
  2
FLTRACE
 10
2240.34545281
 20
-12332.92333444
 30
0.0
 41
17.39130435
 42
17.39130435
 50
213.82337089
 43
17.39130435
  0
INSERT
  8
SHR
  6
CONTINUOUS
  2
FLTRACE
 10
1951.38632662
 20
-12526.53534378
 30
0.0
 41
17.39130435
 42
17.39130435
 50
213.82337089
 43
17.39130435
  0
INSERT
  8
SHR
  6
CONTINUOUS
  2
FLTRACE
 10
1662.42720044
 20
-12720.14735313
 30
0.0
 41
17.39130435
 42
17.39130435
 50
213.82337089
 43
17.39130435
  0
INSERT
  8
SHR
  6
CONTINUOUS
  2
FLTRACE
 10
1373.46807425
 20
-12913.75936247
 30
0.0
 41
17.39130435
 42
17.39130435
 50
213.82337089
 43
17.39130435
  0
INSERT
  8
SHR
  6
CONTINUOUS
  2
FLTRACE
 10
1068.11194131
 20
-13079.80077417
 30
0.0
 41
17.39130435
 42
17.39130435
 50
207.65889913
 43
17.39130435
  0
INSERT
  8
SHR
  6
CONTINUOUS
  2
FLTRACE
 10
760.03303686
 20
-13241.26400652
 30
0.0
 41
17.39130435
 42
17.39130435
 50
207.65889913
 43
17.39130435
  0
INSERT
  8
SHR
  6
CONTINUOUS
  2
FLTRACE
 10
10793.52791452
 20
-25558.22322734
 30
0.0
 41
17.39130435
 42
17.39130435
 50
22.88743306
 43
17.39130435
  0
INSERT
  8
SHR
  6
CONTINUOUS
  2
FLTRACE
 10
11113.96990815
 20
-25422.94604713
 30
0.0
 41
17.39130435
 42
17.39130435
 50
22.88743306
 43
17.39130435
  0
INSERT
  8
SHR
  6
CONTINUOUS
  2
FLTRACE
 10
11434.41190178
 20
-25287.66886693
 30
0.0
 41
17.39130435
 42
17.39130435
 50
22.88743306
 43
17.39130435
  0
INSERT
  8
SHR
  6
CONTINUOUS
  2
FLTRACE
 10
11754.85389542
 20
-25152.39168672
 30
0.0
 41
17.39130435
 42
17.39130435
 50
22.88743306
 43
17.39130435
  0
INSERT
  8
SHR
  6
CONTINUOUS
  2
FLTRACE
 10
12075.29588905
 20
-25017.11450651
 30
0.0
 41
17.39130435
 42
17.39130435
 50
22.88743306
 43
17.39130435
  0
INSERT
  8
SHR
  6
CONTINUOUS
  2
FLTRACE
 10
12395.73788268
 20
-24881.83732631
 30
0.0
 41
17.39130435
 42
17.39130435
 50
22.88743306
 43
17.39130435
  0
INSERT
  8
SHR
  6
CONTINUOUS
  2
FLTRACE
 10
12716.17987631
 20
-24746.5601461
 30
0.0
 41
17.39130435
 42
17.39130435
 50
22.88743306
 43
17.39130435
  0
POLYLINE
  8
CTIF
  6
CONTINUOUS
 62
    10
 39
2.0
 66
     1
 10
0.0
 20
0.0
 30
0.0
  0
VERTEX
  8
CTIF
  6
CONTINUOUS
 62
    10
 39
2.0
 10
-7602.16974777
 20
-16391.43425543
 30
0.0
  0
VERTEX
  8
CTIF
  6
CONTINUOUS
 62
    10
 39
2.0
 10
-7619.74015102
 20
-16401.7437398
 30
0.0
 42
0.60287677
  0
SEQEND
  8
CTIF
  6
CONTINUOUS
 62
    10
 39
2.0
  0
POLYLINE
  8
CTSKN
  6
CONTINUOUS
 39
2.0
 66
     1
 10
0.0
 20
0.0
 30
0.0
  0
VERTEX
  8
CTSKN
  6
CONTINUOUS
 39
2.0
 10
-5019.34557552
 20
-16981.23576296
 30
0.0
 42
-0.90613803
  0
VERTEX
  8
CTSKN
  6
CONTINUOUS
 39
2.0
 10
-5007.54859602
 20
-17020.37282548
 30
0.0
  0
VERTEX
  8
CTSKN
  6
CONTINUOUS
 39
2.0
 10
-5524.90638097
 20
-17046.65846982
 30
0.0
  0
VERTEX
  8
CTSKN
  6
CONTINUOUS
 39
2.0
 10
-6395.63372698
 20
-17117.92171049
 30
0.0
  0
VERTEX
  8
CTSKN
  6
CONTINUOUS
 39
2.0
 10
-7599.63372698
 20
-17331.92171049
 30
0.0
  0
VERTEX
  8
CTSKN
  6
CONTINUOUS
 39
2.0
 10
-8762.07850506
 20
-17450.57544165
 30
0.0
  0
VERTEX
  8
CTSKN
  6
CONTINUOUS
 39
2.0
 10
-9200.63372698
 20
-17496.92171049
 30
0.0
  0
VERTEX
  8
CTSKN
  6
CONTINUOUS
 39
2.0
 10
-9279.10947203
 20
-17503.82136846
 30
0.0
  0
VERTEX
  8
CTSKN
  6
CONTINUOUS
 39
2.0
 10
-9491.31673951
 20
-17514.48081926
 30
0.0
  0
VERTEX
  8
CTSKN
  6
CONTINUOUS
 39
2.0
 10
-9613.03563054
 20
-17510.11561385
 30
0.0
 42
-0.63267744
  0
VERTEX
  8
CTSKN
  6
CONTINUOUS
 39
2.0
 10
-9621.94189086
 20
-17311.49876787
 30
0.0
  0
VERTEX
  8
CTSKN
  6
CONTINUOUS
 39
2.0
 10
-9518.03552047
 20
-17216.19178316
 30
0.0
  0
VERTEX
  8
CTSKN
  6
CONTINUOUS
 39
2.0
 10
-9402.17852251
 20
-17145.12274059
 30
0.0
  0
VERTEX
  8
CTSKN
  6
CONTINUOUS
 39
2.0
 10
-8220.90089141
 20
-16485.38376654
 30
0.0
  0
VERTEX
  8
CTSKN
  6
CONTINUOUS
 39
2.0
 10
-7770.54731187
 20
-16397.56239638
 30
0.0
  0
VERTEX
  8
CTSKN
  6
CONTINUOUS
 39
2.0
 10
-9321.13643692
 20
-17204.33073853
 30
0.0
  0
VERTEX
  8
CTSKN
  6
CONTINUOUS
 39
2.0
 10
-9436.88959311
 20
-17275.84959038
 30
0.0
  0
VERTEX
  8
CTSKN
  6
CONTINUOUS
 39
2.0
 10
-9518.03552047
 20
-17334.77986337
 30
0.0
 42
0.9076115
  0
VERTEX
  8
CTSKN
  6
CONTINUOUS
 39
2.0
 10
-9449.55312187
 20
-17468.52020442
 30
0.0
  0
VERTEX
  8
CTSKN
  6
CONTINUOUS
 39
2.0
 10
-9283.46839215
 20
-17456.52579913
 30
0.0
 42
0.03377008
  0
VERTEX
  8
CTSKN
  6
CONTINUOUS
 39
2.0
 10
-9265.66059894
 20
-17452.72508903
 30
0.0
  0
VERTEX
  8
CTSKN
  6
CONTINUOUS
 39
2.0
 10
-9200.63372698
 20
-17450.92171049
 30
0.0
  0
VERTEX
  8
CTSKN
  6
CONTINUOUS
 39
2.0
 10
-8812.68976906
 20
-17408.23617492
 30
0.0
  0
VERTEX
  8
CTSKN
  6
CONTINUOUS
 39
2.0
 10
-8807.72321768
 20
-17407.56798529
 30
0.0
  0
VERTEX
  8
CTSKN
  6
CONTINUOUS
 39
2.0
 10
-7599.63372698
 20
-17169.92171049
 30
0.0
  0
VERTEX
  8
CTSKN
  6
CONTINUOUS
 39
2.0
 10
-6395.63372698
 20
-16992.92171049
 30
0.0
  0
VERTEX
  8
CTSKN
  6
CONTINUOUS
 39
2.0
 10
-5567.25592806
 20
-17005.85403016
 30
0.0
  0
VERTEX
  8
CTSKN
  6
CONTINUOUS
 39
2.0
 10
-5380.46043655
 20
-17004.88188417
 30
0.0
  0
VERTEX
  8
CTSKN
  6
CONTINUOUS
 39
2.0
 10
-5221.17415539
 20
-16990.55090162
 30
0.0
  0
VERTEX
  8
CTSKN
  6
CONTINUOUS
 39
2.0
 10
-5019.34557552
 20
-16981.23576296
 30
0.0
  0
VERTEX
  8
CTSKN
  6
CONTINUOUS
 39
2.0
 10
-5013.46571602
 20
-16980.60094999
 30
0.0
  0
SEQEND
  8
CTSKN
  6
CONTINUOUS
 39
2.0
  0
POLYLINE
  8
CTIF
  6
CONTINUOUS
 62
    10
 39
2.0
 66
     1
 10
0.0
 20
0.0
 30
0.0
  0
VERTEX
  8
CTIF
  6
CONTINUOUS
 62
    10
 39
2.0
 10
-7619.74015102
 20
-16401.7437398
 30
0.0
  0
VERTEX
  8
CTIF
  6
CONTINUOUS
 62
    10
 39
2.0
 10
-8936.48392551
 20
-17174.34691632
 30
0.0
 42
0.60287677
  0
VERTEX
  8
CTIF
  6
CONTINUOUS
 62
    10
 39
2.0
 10
-8908.20552149
 20
-17229.41373848
 30
0.0
  0
VERTEX
  8
CTIF
  6
CONTINUOUS
 62
    10
 39
2.0
 10
-7599.23764276
 20
-16978.61208242
 30
0.0
  0
VERTEX
  8
CTIF
  6
CONTINUOUS
 62
    10
 39
2.0
 10
-6395.79936133
 20
-16862.18196782
 30
0.0
  0
VERTEX
  8
CTIF
  6
CONTINUOUS
 62
    10
 39
2.0
 10
-5953.35623061
 20
-16814.01527968
 30
0.0
 42
0.95286487
  0
VERTEX
  8
CTIF
  6
CONTINUOUS
 62
    10
 39
2.0
 10
-5953.3097496
 20
-16808.04297213
 30
0.0
  0
VERTEX
  8
CTIF
  6
CONTINUOUS
 62
    10
 39
2.0
 10
-6395.79936133
 20
-16815.90068533
 30
0.0
  0
VERTEX
  8
CTIF
  6
CONTINUOUS
 62
    10
 39
2.0
 10
-7594.98254726
 20
-16849.327815
 30
0.0
  0
VERTEX
  8
CTIF
  6
CONTINUOUS
 62
    10
 39
2.0
 10
-8329.6014116
 20
-16991.98725011
 30
0.0
 42
-0.75872972
  0
VERTEX
  8
CTIF
  6
CONTINUOUS
 62
    10
 39
2.0
 10
-8360.19851073
 20
-16937.5980166
 30
0.0
  0
VERTEX
  8
CTIF
  6
CONTINUOUS
 62
    10
 39
2.0
 10
-7573.07636755
 20
-16475.75184736
 30
0.0
 42
0.90620802
  0
VERTEX
  8
CTIF
  6
CONTINUOUS
 62
    10
 39
2.0
 10
-7602.16974777
 20
-16391.43425543
 30
0.0
  0
SEQEND
  8
CTIF
  6
CONTINUOUS
 62
    10
 39
2.0
  0
POLYLINE
  8
CTMIN
  6
CONTINUOUS
 39
2.0
 66
     1
 10
0.0
 20
0.0
 30
0.0
 40
5.0
 41
5.0
  0
VERTEX
  8
CTMIN
  6
CONTINUOUS
 39
2.0
 10
-1092.98385898
 20
-13189.98698782
 30
0.0
  0
VERTEX
  8
CTMIN
  6
CONTINUOUS
 39
2.0
 10
-2778.63372698
 20
-13472.92171049
 30
0.0
  0
VERTEX
  8
CTMIN
  6
CONTINUOUS
 39
2.0
 10
-2981.27266121
 20
-13526.6271635
 30
0.0
  0
VERTEX
  8
CTMIN
  6
CONTINUOUS
 39
2.0
 10
-3104.94213416
 20
-13574.63595506
 30
0.0
  0
VERTEX
  8
CTMIN
  6
CONTINUOUS
 39
2.0
 10
-3239.49452074
 20
-13641.27502394
 30
0.0
  0
VERTEX
  8
CTMIN
  6
CONTINUOUS
 39
2.0
 10
-3344.36623381
 20
-13679.25212772
 30
0.0
  0
VERTEX
  8
CTMIN
  6
CONTINUOUS
 39
2.0
 10
-3458.14214893
 20
-13717.94578062
 30
0.0
  0
VERTEX
  8
CTMIN
  6
CONTINUOUS
 39
2.0
 10
-3574.8861314
 20
-13767.72966114
 30
0.0
  0
VERTEX
  8
CTMIN
  6
CONTINUOUS
 39
2.0
 10
-3697.56624857
 20
-13806.42331404
 30
0.0
  0
VERTEX
  8
CTMIN
  6
CONTINUOUS
 39
2.0
 10
-3821.23572153
 20
-13837.23492653
 30
0.0
  0
VERTEX
  8
CTMIN
  6
CONTINUOUS
 39
2.0
 10
-4190.26542883
 20
-13913.9056832
 30
0.0
  0
SEQEND
  8
CTMIN
  6
CONTINUOUS
 39
2.0
  0
POLYLINE
  8
CTMIN
  6
CONTINUOUS
 39
2.0
 66
     1
 10
0.0
 20
0.0
 30
0.0
 40
5.0
 41
5.0
  0
VERTEX
  8
CTMIN
  6
CONTINUOUS
 39
2.0
 10
2994.36627302
 20
-11907.92171049
 30
0.0
  0
VERTEX
  8
CTMIN
  6
CONTINUOUS
 39
2.0
 10
2169.2415669
 20
-12453.19586674
 30
0.0
  0
VERTEX
  8
CTMIN
  6
CONTINUOUS
 39
2.0
 10
2070.56378144
 20
-12518.40994177
 30
0.0
  0
VERTEX
  8
CTMIN
  6
CONTINUOUS
 39
2.0
 10
2016.94574742
 20
-12551.24692814
 30
0.0
  0
VERTEX
  8
CTMIN
  6
CONTINUOUS
 39
2.0
 10
1933.3646944
 20
-12587.22484363
 30
0.0
  0
VERTEX
  8
CTMIN
  6
CONTINUOUS
 39
2.0
 10
1430.29844594
 20
-12733.42140271
 30
0.0
  0
VERTEX
  8
CTMIN
  6
CONTINUOUS
 39
2.0
 10
-102.93223566
 20
-13072.32505839
 30
0.0
  0
VERTEX
  8
CTMIN
  6
CONTINUOUS
 39
2.0
 10
-198.50069344
 20
-13089.86751934
 30
0.0
  0
VERTEX
  8
CTMIN
  6
CONTINUOUS
 39
2.0
 10
-938.38000871
 20
-13164.03687901
 30
0.0
  0
VERTEX
  8
CTMIN
  6
CONTINUOUS
 39
2.0
 10
-989.91462547
 20
-13172.68691528
 30
0.0
  0
SEQEND
  8
CTMIN
  6
CONTINUOUS
 39
2.0
  0
POLYLINE
  8
CTIF
  6
CONTINUOUS
 39
2.0
 66
     1
 10
0.0
 20
0.0
 30
0.0
 70
     1
  0
VERTEX
  8
CTIF
  6
CONTINUOUS
 39
2.0
 10
7142.98239407
 20
-11672.31904264
 30
0.0
  0
VERTEX
  8
CTIF
  6
CONTINUOUS
 39
2.0
 10
7320.73399028
 20
-11531.96680991
 30
0.0
  0
VERTEX
  8
CTIF
  6
CONTINUOUS
 39
2.0
 10
7433.86382943
 20
-11442.35876099
 30
0.0
  0
VERTEX
  8
CTIF
  6
CONTINUOUS
 39
2.0
 10
7567.14052579
 20
-11332.62242969
 30
0.0
 42
0.79586847
  0
VERTEX
  8
CTIF
  6
CONTINUOUS
 39
2.0
 10
7527.20606014
 20
-11249.76909885
 30
0.0
  0
VERTEX
  8
CTIF
  6
CONTINUOUS
 39
2.0
 10
7142.98239407
 20
-11297.52714949
 30
0.0
  0
VERTEX
  8
CTIF
  6
CONTINUOUS
 39
2.0
 10
6401.81895227
 20
-11411.22223544
 30
0.0
 42
0.90064154
  0
VERTEX
  8
CTIF
  6
CONTINUOUS
 39
2.0
 10
6406.81226084
 20
-11460.25446128
 30
0.0
  0
VERTEX
  8
CTIF
  6
CONTINUOUS
 39
2.0
 10
7142.98239407
 20
-11346.40664001
 30
0.0
  0
VERTEX
  8
CTIF
  6
CONTINUOUS
 39
2.0
 10
7413.7549314
 20
-11307.88626572
 30
0.0
  0
VERTEX
  8
CTIF
  6
CONTINUOUS
 39
2.0
 10
7468.61330753
 20
-11300.70864024
 30
0.0
 42
-0.92467809
  0
VERTEX
  8
CTIF
  6
CONTINUOUS
 39
2.0
 10
7502.81753459
 20
-11368.99914141
 30
0.0
  0
VERTEX
  8
CTIF
  6
CONTINUOUS
 39
2.0
 10
7142.98239407
 20
-11649.96678913
 30
0.0
  0
VERTEX
  8
CTIF
  6
CONTINUOUS
 39
2.0
 10
6123.43473082
 20
-12510.31636584
 30
0.0
  0
VERTEX
  8
CTIF
  6
CONTINUOUS
 39
2.0
 10
5350.09239289
 20
-13008.77165521
 30
0.0
  0
VERTEX
  8
CTIF
  6
CONTINUOUS
 39
2.0
 10
4469.57637951
 20
-13417.05124047
 30
0.0
 42
0.87846579
  0
VERTEX
  8
CTIF
  6
CONTINUOUS
 39
2.0
 10
4487.61389087
 20
-13456.17309657
 30
0.0
  0
VERTEX
  8
CTIF
  6
CONTINUOUS
 39
2.0
 10
5350.09239289
 20
-13048.96664063
 30
0.0
  0
VERTEX
  8
CTIF
  6
CONTINUOUS
 39
2.0
 10
6125.75632276
 20
-12535.61458157
 30
0.0
  0
SEQEND
  8
CTIF
  6
CONTINUOUS
 39
2.0
  0
POLYLINE
  8
CTMIN
  6
CONTINUOUS
 39
2.0
 66
     1
 10
0.0
 20
0.0
 30
0.0
 40
10.0
 41
10.0
  0
VERTEX
  8
CTMIN
  6
CONTINUOUS
 39
2.0
 10
4474.51252436
 20
-13587.15928094
 30
0.0
  0
VERTEX
  8
CTMIN
  6
CONTINUOUS
 39
2.0
 10
5350.09239289
 20
-13163.44711203
 30
0.0
  0
VERTEX
  8
CTMIN
  6
CONTINUOUS
 39
2.0
 10
5719.99263265
 20
-12919.20336275
 30
0.0
  0
SEQEND
  8
CTMIN
  6
CONTINUOUS
 39
2.0
  0
POLYLINE
  8
CTSED
  6
CONTINUOUS
 39
2.0
 66
     1
 10
0.0
 20
0.0
 30
0.0
  0
VERTEX
  8
CTSED
  6
CONTINUOUS
 39
2.0
 10
-10640.03803493
 20
-15245.30153426
 30
0.0
  0
VERTEX
  8
CTSED
  6
CONTINUOUS
 39
2.0
 10
-9222.14976096
 20
-15419.90975847
 30
0.0
  0
VERTEX
  8
CTSED
  6
CONTINUOUS
 39
2.0
 10
-8883.4016172
 20
-15500.50089895
 30
0.0
  0
VERTEX
  8
CTSED
  6
CONTINUOUS
 39
2.0
 10
-8758.03463987
 20
-15559.59633147
 30
0.0
  0
VERTEX
  8
CTSED
  6
CONTINUOUS
 39
2.0
 10
-8658.08660739
 20
-15609.06865941
 30
0.0
  0
VERTEX
  8
CTSED
  6
CONTINUOUS
 39
2.0
 10
-8580.89901796
 20
-15679.63948014
 30
0.0
  0
VERTEX
  8
CTSED
  6
CONTINUOUS
 39
2.0
 10
-8545.27397668
 20
-15750.93783511
 30
0.0
  0
VERTEX
  8
CTSED
  6
CONTINUOUS
 39
2.0
 10
-8531.41979396
 20
-15828.78399819
 30
0.0
  0
VERTEX
  8
CTSED
  6
CONTINUOUS
 39
2.0
 10
-8531.41979396
 20
-15920.45331172
 30
0.0
  0
VERTEX
  8
CTSED
  6
CONTINUOUS
 39
2.0
 10
-8552.20106804
 20
-16033.94865229
 30
0.0
  0
VERTEX
  8
CTSED
  6
CONTINUOUS
 39
2.0
 10
-8616.52405924
 20
-16146.71645862
 30
0.0
  0
VERTEX
  8
CTSED
  6
CONTINUOUS
 39
2.0
 10
-8708.55541587
 20
-16274.76248387
 30
0.0
  0
VERTEX
  8
CTSED
  6
CONTINUOUS
 39
2.0
 10
-8843.1100739
 20
-16423.2062623
 30
0.0
  0
VERTEX
  8
CTSED
  6
CONTINUOUS
 39
2.0
 10
-8953.9723669
 20
-16542.49508212
 30
0.0
  0
VERTEX
  8
CTSED
  6
CONTINUOUS
 39
2.0
 10
-9129.12881985
 20
-16716.37576414
 30
0.0
  0
VERTEX
  8
CTSED
  6
CONTINUOUS
 39
2.0
 10
-9297.35818144
 20
-16873.52315877
 30
0.0
  0
VERTEX
  8
CTSED
  6
CONTINUOUS
 39
2.0
 10
-9521.00427391
 20
-17048.85890925
 30
0.0
  0
VERTEX
  8
CTSED
  6
CONTINUOUS
 39
2.0
 10
-9601.90558807
 20
-17129.65916991
 30
0.0
  0
VERTEX
  8
CTSED
  6
CONTINUOUS
 39
2.0
 10
-9811.94211101
 20
-17320.22917868
 30
0.0
 42
0.82430077
  0
VERTEX
  8
CTSED
  6
CONTINUOUS
 39
2.0
 10
-9688.3567333
 20
-17585.26288274
 30
0.0
  0
VERTEX
  8
CTSED
  6
CONTINUOUS
 39
2.0
 10
-9442.82709999
 20
-17571.22848954
 30
0.0
  0
VERTEX
  8
CTSED
  6
CONTINUOUS
 39
2.0
 10
-9422.13621957
 20
-17570.17710614
 30
0.0
  0
VERTEX
  8
CTSED
  6
CONTINUOUS
 39
2.0
 10
-9200.63372698
 20
-17558.92171049
 30
0.0
  0
VERTEX
  8
CTSED
  6
CONTINUOUS
 39
2.0
 10
-7599.63372698
 20
-17426.92171049
 30
0.0
  0
VERTEX
  8
CTSED
  6
CONTINUOUS
 39
2.0
 10
-6334.54224848
 20
-17198.59709279
 30
0.0
  0
VERTEX
  8
CTSED
  6
CONTINUOUS
 39
2.0
 10
-5504.28086981
 20
-17103.29010809
 30
0.0
  0
VERTEX
  8
CTSED
  6
CONTINUOUS
 39
2.0
 10
-4737.35289785
 20
-17107.78918224
 30
0.0
  0
VERTEX
  8
CTSED
  6
CONTINUOUS
 39
2.0
 10
-4372.19622475
 20
-17089.60082638
 30
0.0
  0
VERTEX
  8
CTSED
  6
CONTINUOUS
 39
2.0
 10
-4288.08154395
 20
-17077.96027863
 30
0.0
  0
VERTEX
  8
CTSED
  6
CONTINUOUS
 39
2.0
 10
-4215.84187692
 20
-17048.13137502
 30
0.0
  0
VERTEX
  8
CTSED
  6
CONTINUOUS
 39
2.0
 10
-4132.7167806
 20
-17000.11411555
 30
0.0
  0
VERTEX
  8
CTSED
  6
CONTINUOUS
 39
2.0
 10
-4018.91456541
 20
-16928.08822635
 30
0.0
  0
VERTEX
  8
CTSED
  6
CONTINUOUS
 39
2.0
 10
-3898.18525886
 20
-16856.06233714
 30
0.0
  0
VERTEX
  8
CTSED
  6
CONTINUOUS
 39
2.0
 10
-3629.01828031
 20
-16730.19891459
 30
0.0
  0
VERTEX
  8
CTSED
  6
CONTINUOUS
 39
2.0
 10
-3346.98670353
 20
-16592.6949443
 30
0.0
  0
VERTEX
  8
CTSED
  6
CONTINUOUS
 39
2.0
 10
-3245.05950209
 20
-16556.31823258
 30
0.0
  0
VERTEX
  8
CTSED
  6
CONTINUOUS
 39
2.0
 10
-3053.08011298
 20
-16502.48069923
 30
0.0
  0
VERTEX
  8
CTSED
  6
CONTINUOUS
 39
2.0
 10
-2789.85064132
 20
-16478.4720695
 30
0.0
  0
VERTEX
  8
CTSED
  6
CONTINUOUS
 39
2.0
 10
-2770.73809657
 20
-16476.87784925
 30
0.0
  0
VERTEX
  8
CTSED
  6
CONTINUOUS
 39
2.0
 10
-2703.80557976
 20
-16464.3516209
 30
0.0
  0
VERTEX
  8
CTSED
  6
CONTINUOUS
 39
2.0
 10
-2679.01717956
 20
-16460.28371364
 30
0.0
  0
VERTEX
  8
CTSED
  6
CONTINUOUS
 39
2.0
 10
-2471.20443878
 20
-16427.54467309
 30
0.0
  0
VERTEX
  8
CTSED
  6
CONTINUOUS
 39
2.0
 10
-2255.47502215
 20
-16377.34481092
 30
0.0
  0
VERTEX
  8
CTSED
  6
CONTINUOUS
 39
2.0
 10
-1916.04754553
 20
-16286.40303162
 30
0.0
  0
VERTEX
  8
CTSED
  6
CONTINUOUS
 39
2.0
 10
-1667.66184106
 20
-16212.19453971
 30
0.0
  0
VERTEX
  8
CTSED
  6
CONTINUOUS
 39
2.0
 10
-1485.57829675
 20
-16153.99180096
 30
0.0
  0
VERTEX
  8
CTSED
  6
CONTINUOUS
 39
2.0
 10
-1033.08343427
 20
-12726.70505664
 30
0.0
  0
VERTEX
  8
CTSED
  6
CONTINUOUS
 39
2.0
 10
-2778.63372698
 20
-13156.92171049
 30
0.0
  0
VERTEX
  8
CTSED
  6
CONTINUOUS
 39
2.0
 10
-3096.13100561
 20
-13297.65930554
 30
0.0
  0
VERTEX
  8
CTSED
  6
CONTINUOUS
 39
2.0
 10
-3306.64113089
 20
-13403.50452833
 30
0.0
  0
VERTEX
  8
CTSED
  6
CONTINUOUS
 39
2.0
 10
-3505.0529731
 20
-13471.99261366
 30
0.0
  0
VERTEX
  8
CTSED
  6
CONTINUOUS
 39
2.0
 10
-3710.72378516
 20
-13508.46029547
 30
0.0
  0
VERTEX
  8
CTSED
  6
CONTINUOUS
 39
2.0
 10
-3940.59116333
 20
-13533.36505377
 30
0.0
  0
VERTEX
  8
CTSED
  6
CONTINUOUS
 39
2.0
 10
-4400.63372698
 20
-13538.92171049
 30
0.0
  0
VERTEX
  8
CTSED
  6
CONTINUOUS
 39
2.0
 10
-4783.84149275
 20
-13501.34465024
 30
0.0
  0
VERTEX
  8
CTSED
  6
CONTINUOUS
 39
2.0
 10
-4959.26659715
 20
-13463.09805713
 30
0.0
  0
VERTEX
  8
CTSED
  6
CONTINUOUS
 39
2.0
 10
-5064.52165978
 20
-13448.86676667
 30
0.0
  0
VERTEX
  8
CTSED
  6
CONTINUOUS
 39
2.0
 10
-5163.72758089
 20
-13424.85146402
 30
0.0
  0
VERTEX
  8
CTSED
  6
CONTINUOUS
 39
2.0
 10
-5283.63372698
 20
-13416.92171049
 30
0.0
  0
VERTEX
  8
CTSED
  6
CONTINUOUS
 39
2.0
 10
-5343.99199851
 20
-13420.40418575
 30
0.0
  0
VERTEX
  8
CTSED
  6
CONTINUOUS
 39
2.0
 10
-5433.51929317
 20
-13424.85146402
 30
0.0
  0
VERTEX
  8
CTSED
  6
CONTINUOUS
 39
2.0
 10
-5495.22053679
 20
-13439.08275448
 30
0.0
  0
VERTEX
  8
CTSED
  6
CONTINUOUS
 39
2.0
 10
-5599.26577112
 20
-13472.88206932
 30
0.0
  0
VERTEX
  8
CTSED
  6
CONTINUOUS
 39
2.0
 10
-5746.86482448
 20
-13538.70178769
 30
0.0
  0
VERTEX
  8
CTSED
  6
CONTINUOUS
 39
2.0
 10
-5888.4147363
 20
-13614.30551825
 30
0.0
  0
VERTEX
  8
CTSED
  6
CONTINUOUS
 39
2.0
 10
-5981.57151588
 20
-13666.78340182
 30
0.0
  0
VERTEX
  8
CTSED
  6
CONTINUOUS
 39
2.0
 10
-6183.61284301
 20
-13764.62352373
 30
0.0
  0
VERTEX
  8
CTSED
  6
CONTINUOUS
 39
2.0
 10
-6415.8998778
 20
-13844.67453256
 30
0.0
  0
VERTEX
  8
CTSED
  6
CONTINUOUS
 39
2.0
 10
-6691.74073161
 20
-13942.51465446
 30
0.0
  0
VERTEX
  8
CTSED
  6
CONTINUOUS
 39
2.0
 10
-6961.53244389
 20
-14010.11328414
 30
0.0
  0
VERTEX
  8
CTSED
  6
CONTINUOUS
 39
2.0
 10
-7237.37329771
 20
-14077.71191382
 30
0.0
  0
VERTEX
  8
CTSED
  6
CONTINUOUS
 39
2.0
 10
-7584.63372698
 20
-14086.92171049
 30
0.0
  0
VERTEX
  8
CTSED
  6
CONTINUOUS
 39
2.0
 10
-7700.73753898
 20
-14097.2799382
 30
0.0
  0
VERTEX
  8
CTSED
  6
CONTINUOUS
 39
2.0
 10
-7981.41770601
 20
-14097.2799382
 30
0.0
  0
VERTEX
  8
CTSED
  6
CONTINUOUS
 39
2.0
 10
-8323.79911667
 20
-14083.9381034
 30
0.0
  0
VERTEX
  8
CTSED
  6
CONTINUOUS
 39
2.0
 10
-8666.18052732
 20
-14056.36497813
 30
0.0
  0
VERTEX
  8
CTSED
  6
CONTINUOUS
 39
2.0
 10
-9206.97378019
 20
-13946.96193273
 30
0.0
  0
VERTEX
  8
CTSED
  6
CONTINUOUS
 39
2.0
 10
-9919.56265253
 20
-13871.35820217
 30
0.0
  0
VERTEX
  8
CTSED
  6
CONTINUOUS
 39
2.0
 10
-10640.49823956
 20
-13811.6850068
 30
0.0
  0
VERTEX
  8
CTSED
  6
CONTINUOUS
 39
2.0
 10
-10640.49823956
 20
-15246.27316036
 30
0.0
  0
SEQEND
  8
CTSED
  6
CONTINUOUS
 39
2.0
  0
POLYLINE
  8
CTIF
  6
CONTINUOUS
 39
2.0
 66
     1
 10
0.0
 20
0.0
 30
0.0
 70
     1
  0
VERTEX
  8
CTIF
  6
CONTINUOUS
 39
2.0
 10
-9207.60010515
 20
-14152.88194164
 30
0.0
  0
VERTEX
  8
CTIF
  6
CONTINUOUS
 39
2.0
 10
-8732.39783155
 20
-14195.50949042
 30
0.0
  0
VERTEX
  8
CTIF
  6
CONTINUOUS
 39
2.0
 10
-8454.38885635
 20
-14208.40737472
 30
0.0
  0
VERTEX
  8
CTIF
  6
CONTINUOUS
 39
2.0
 10
-8163.51825596
 20
-14222.02180814
 30
0.0
  0
VERTEX
  8
CTIF
  6
CONTINUOUS
 39
2.0
 10
-7852.86053989
 20
-14228.47075029
 30
0.0
  0
VERTEX
  8
CTIF
  6
CONTINUOUS
 39
2.0
 10
-7661.03424133
 20
-14214.47282609
 30
0.0
  0
VERTEX
  8
CTIF
  6
CONTINUOUS
 39
2.0
 10
-7584.63372698
 20
-14206.92171049
 30
0.0
  0
VERTEX
  8
CTIF
  6
CONTINUOUS
 39
2.0
 10
-6864.49411203
 20
-14120.80924385
 30
0.0
  0
VERTEX
  8
CTIF
  6
CONTINUOUS
 39
2.0
 10
-6382.67784539
 20
-14012.61032555
 30
0.0
  0
VERTEX
  8
CTIF
  6
CONTINUOUS
 39
2.0
 10
-5660.44812333
 20
-13850.67022268
 30
0.0
  0
VERTEX
  8
CTIF
  6
CONTINUOUS
 39
2.0
 10
-5283.63372698
 20
-13759.92171049
 30
0.0
  0
VERTEX
  8
CTIF
  6
CONTINUOUS
 39
2.0
 10
-4400.63372698
 20
-13692.92171049
 30
0.0
  0
VERTEX
  8
CTIF
  6
CONTINUOUS
 39
2.0
 10
-3949.8519734
 20
-13664.54658674
 30
0.0
  0
VERTEX
  8
CTIF
  6
CONTINUOUS
 39
2.0
 10
-3635.2368342
 20
-13593.60822309
 30
0.0
  0
VERTEX
  8
CTIF
  6
CONTINUOUS
 39
2.0
 10
-3456.16343736
 20
-13541.30013676
 30
0.0
  0
VERTEX
  8
CTIF
  6
CONTINUOUS
 39
2.0
 10
-2778.63372698
 20
-13205.92171049
 30
0.0
  0
VERTEX
  8
CTIF
  6
CONTINUOUS
 39
2.0
 10
-1928.59810741
 20
-13036.84955081
 30
0.0
  0
VERTEX
  8
CTIF
  6
CONTINUOUS
 39
2.0
 10
-2778.63372698
 20
-13180.92171049
 30
0.0
  0
VERTEX
  8
CTIF
  6
CONTINUOUS
 39
2.0
 10
-3464.07828363
 20
-13525.53605595
 30
0.0
  0
VERTEX
  8
CTIF
  6
CONTINUOUS
 39
2.0
 10
-3706.47045062
 20
-13592.89167396
 30
0.0
  0
VERTEX
  8
CTIF
  6
CONTINUOUS
 39
2.0
 10
-4053.73433068
 20
-13645.19976029
 30
0.0
  0
VERTEX
  8
CTIF
  6
CONTINUOUS
 39
2.0
 10
-4400.63372698
 20
-13649.92171049
 30
0.0
  0
VERTEX
  8
CTIF
  6
CONTINUOUS
 39
2.0
 10
-5283.63372698
 20
-13706.92171049
 30
0.0
  0
VERTEX
  8
CTIF
  6
CONTINUOUS
 39
2.0
 10
-5724.75624926
 20
-13820.57515931
 30
0.0
  0
VERTEX
  8
CTIF
  6
CONTINUOUS
 39
2.0
 10
-6019.58427279
 20
-13894.37971947
 30
0.0
  0
VERTEX
  8
CTIF
  6
CONTINUOUS
 39
2.0
 10
-6437.09241349
 20
-13997.56279387
 30
0.0
  0
VERTEX
  8
CTIF
  6
CONTINUOUS
 39
2.0
 10
-6864.49411203
 20
-14090.71418048
 30
0.0
  0
VERTEX
  8
CTIF
  6
CONTINUOUS
 39
2.0
 10
-7584.63372698
 20
-14177.92171049
 30
0.0
  0
VERTEX
  8
CTIF
  6
CONTINUOUS
 39
2.0
 10
-7653.84009015
 20
-14184.33697206
 30
0.0
  0
VERTEX
  8
CTIF
  6
CONTINUOUS
 39
2.0
 10
-8169.45439066
 20
-14189.06054827
 30
0.0
  0
VERTEX
  8
CTIF
  6
CONTINUOUS
 39
2.0
 10
-8441.52723116
 20
-14175.44611484
 30
0.0
  0
VERTEX
  8
CTIF
  6
CONTINUOUS
 39
2.0
 10
-8771.9720629
 20
-14148.93379711
 30
0.0
  0
VERTEX
  8
CTIF
  6
CONTINUOUS
 39
2.0
 10
-9055.91717281
 20
-14115.97253723
 30
0.0
  0
VERTEX
  8
CTIF
  6
CONTINUOUS
 39
2.0
 10
-9206.64918756
 20
-14100.89844679
 30
0.0
  0
VERTEX
  8
CTIF
  6
CONTINUOUS
 39
2.0
 10
-9242.78405594
 20
-14096.46083137
 30
0.0
  0
VERTEX
  8
CTIF
  6
CONTINUOUS
 39
2.0
 10
-10640.04287973
 20
-13926.34525062
 30
0.0
  0
VERTEX
  8
CTIF
  6
CONTINUOUS
 39
2.0
 10
-10640.0427059
 20
-13973.66881147
 30
0.0
  0
VERTEX
  8
CTIF
  6
CONTINUOUS
 39
2.0
 10
-9286.37888701
 20
-14144.10406677
 30
0.0
  0
SEQEND
  8
CTIF
  6
CONTINUOUS
 39
2.0
  0
INSERT
  8
CTSKN
  6
CONTINUOUS
  2
*X1
 10
0.0
 20
0.0
 30
0.0
  0
INSERT
  8
CTIF
  6
CONTINUOUS
  2
*X2
 10
0.0
 20
0.0
 30
0.0
  0
INSERT
  8
CTUM
  6
CONTINUOUS
  2
*X3
 10
0.0
 20
0.0
 30
0.0
  0
POLYLINE
  8
CTSED
  6
CONTINUOUS
 66
     1
 10
0.0
 20
0.0
 30
0.0
  0
VERTEX
  8
CTSED
  6
CONTINUOUS
 10
810.25769672
 20
-15578.05751267
 30
0.0
  0
VERTEX
  8
CTSED
  6
CONTINUOUS
 10
-818.98326637
 20
-16373.74943741
 30
0.0
  0
VERTEX
  8
CTSED
  6
CONTINUOUS
 10
-869.06423648
 20
-16391.40986843
 30
0.0
  0
VERTEX
  8
CTSED
  6
CONTINUOUS
 10
-746.31794595
 20
-15900.25616775
 30
0.0
  0
VERTEX
  8
CTSED
  6
CONTINUOUS
 10
-1371.28349909
 20
-16122.27048034
 30
0.0
  0
VERTEX
  8
CTSED
  6
CONTINUOUS
 10
-929.42389158
 20
-12704.83941419
 30
0.0
  0
VERTEX
  8
CTSED
  6
CONTINUOUS
 10
-876.89099677
 20
-12688.46849466
 30
0.0
  0
VERTEX
  8
CTSED
  6
CONTINUOUS
 10
113.8751373
 20
-12379.59413772
 30
0.0
  0
VERTEX
  8
CTSED
  6
CONTINUOUS
 10
319.42379467
 20
-12322.06898846
 30
0.0
  0
VERTEX
  8
CTSED
  6
CONTINUOUS
 10
526.24695098
 20
-12258.77351006
 30
0.0
  0
VERTEX
  8
CTSED
  6
CONTINUOUS
 10
744.94512105
 20
-12138.00282716
 30
0.0
  0
VERTEX
  8
CTSED
  6
CONTINUOUS
 10
848.85149144
 20
-12057.97406137
 30
0.0
  0
VERTEX
  8
CTSED
  6
CONTINUOUS
 10
1107.13304071
 20
-11776.41831267
 30
0.0
  0
VERTEX
  8
CTSED
  6
CONTINUOUS
 10
1181.40418135
 20
-11615.01194544
 30
0.0
  0
VERTEX
  8
CTSED
  6
CONTINUOUS
 10
1193.92016815
 20
-11596.13064005
 30
0.0
  0
VERTEX
  8
CTSED
  6
CONTINUOUS
 10
1216.90690596
 20
-11501.84834076
 30
0.0
  0
VERTEX
  8
CTSED
  6
CONTINUOUS
 10
1232.63467394
 20
-11393.33475101
 30
0.0
  0
VERTEX
  8
CTSED
  6
CONTINUOUS
 10
1231.1530301
 20
-11340.77748284
 30
0.0
  0
VERTEX
  8
CTSED
  6
CONTINUOUS
 10
1221.83106254
 20
-11240.26047144
 30
0.0
  0
VERTEX
  8
CTSED
  6
CONTINUOUS
 10
1215.61641473
 20
-11200.67229779
 30
0.0
  0
VERTEX
  8
CTSED
  6
CONTINUOUS
 10
3007.8885127
 20
-11200.93933744
 30
0.0
  0
VERTEX
  8
CTSED
  6
CONTINUOUS
 10
3142.91753853
 20
-11203.76952616
 30
0.0
  0
VERTEX
  8
CTSED
  6
CONTINUOUS
 10
3141.01570336
 20
-11437.69525301
 30
0.0
  0
VERTEX
  8
CTSED
  6
CONTINUOUS
 10
3139.11386818
 20
-11717.89896919
 30
0.0
  0
VERTEX
  8
CTSED
  6
CONTINUOUS
 10
3134.35928023
 20
-12024.72837785
 30
0.0
  0
VERTEX
  8
CTSED
  6
CONTINUOUS
 10
3129.60469229
 20
-12535.68809558
 30
0.0
  0
VERTEX
  8
CTSED
  6
CONTINUOUS
 10
3115.34092846
 20
-12703.68353627
 30
0.0
  0
VERTEX
  8
CTSED
  6
CONTINUOUS
 10
3082.05881285
 20
-12886.25971333
 30
0.0
  0
VERTEX
  8
CTSED
  6
CONTINUOUS
 10
3035.463851
 20
-13229.22399036
 30
0.0
  0
VERTEX
  8
CTSED
  6
CONTINUOUS
 10
2969.85053737
 20
-13574.72404764
 30
0.0
  0
VERTEX
  8
CTSED
  6
CONTINUOUS
 10
2890.92437749
 20
-13810.55160967
 30
0.0
  0
VERTEX
  8
CTSED
  6
CONTINUOUS
 10
2779.6670196
 20
-13953.18924799
 30
0.0
  0
VERTEX
  8
CTSED
  6
CONTINUOUS
 10
2734.97389293
 20
-14022.92320451
 30
0.0
  0
VERTEX
  8
CTSED
  6
CONTINUOUS
 10
2688.37893107
 20
-14138.93515034
 30
0.0
  0
VERTEX
  8
CTSED
  6
CONTINUOUS
 10
2633.22571092
 20
-14328.48472305
 30
0.0
  0
VERTEX
  8
CTSED
  6
CONTINUOUS
 10
2612.30552397
 20
-14489.50676809
 30
0.0
  0
VERTEX
  8
CTSED
  6
CONTINUOUS
 10
2584.72891389
 20
-14696.17285739
 30
0.0
  0
VERTEX
  8
CTSED
  6
CONTINUOUS
 10
2574.26882041
 20
-14779.85360521
 30
0.0
  0
VERTEX
  8
CTSED
  6
CONTINUOUS
 10
2566.60302388
 20
-14785.28572806
 30
0.0
  0
VERTEX
  8
CTSED
  6
CONTINUOUS
 10
1256.56029718
 20
-15381.62326938
 30
0.0
  0
SEQEND
  8
CTSED
  6
CONTINUOUS
  0
POLYLINE
  8
CTSED
  6
CONTINUOUS
 66
     1
 10
0.0
 20
0.0
 30
0.0
 70
     1
  0
VERTEX
  8
CTSED
  6
CONTINUOUS
 10
3254.17502928
 20
-11200.97603291
 30
0.0
  0
VERTEX
  8
CTSED
  6
CONTINUOUS
 10
7886.77631281
 20
-11201.6662675
 30
0.0
  0
VERTEX
  8
CTSED
  6
CONTINUOUS
 10
7534.48423795
 20
-11494.13502973
 30
0.0
  0
VERTEX
  8
CTSED
  6
CONTINUOUS
 10
7142.98239407
 20
-11813.84953625
 30
0.0
  0
VERTEX
  8
CTSED
  6
CONTINUOUS
 10
6890.08302832
 20
-12077.19549359
 30
0.0
  0
VERTEX
  8
CTSED
  6
CONTINUOUS
 10
6687.75549404
 20
-12308.20799214
 30
0.0
  0
VERTEX
  8
CTSED
  6
CONTINUOUS
 10
6473.93207713
 20
-12527.95158833
 30
0.0
  0
VERTEX
  8
CTSED
  6
CONTINUOUS
 10
6162.25973074
 20
-12800.41285146
 30
0.0
  0
VERTEX
  8
CTSED
  6
CONTINUOUS
 10
5350.09239289
 20
-13364.81784236
 30
0.0
  0
VERTEX
  8
CTSED
  6
CONTINUOUS
 10
4945.73123841
 20
-13581.70357351
 30
0.0
  0
VERTEX
  8
CTSED
  6
CONTINUOUS
 10
4357.91805733
 20
-13868.35206186
 30
0.0
  0
VERTEX
  8
CTSED
  6
CONTINUOUS
 10
2867.60383053
 20
-14648.26876112
 30
0.0
  0
VERTEX
  8
CTSED
  6
CONTINUOUS
 10
2766.35417336
 20
-14694.90496728
 30
0.0
  0
VERTEX
  8
CTSED
  6
CONTINUOUS
 10
2811.04730003
 20
-14348.13701988
 30
0.0
  0
VERTEX
  8
CTSED
  6
CONTINUOUS
 10
2863.34776742
 20
-14171.90029342
 30
0.0
  0
VERTEX
  8
CTSED
  6
CONTINUOUS
 10
2901.38447097
 20
-14073.00486418
 30
0.0
  0
VERTEX
  8
CTSED
  6
CONTINUOUS
 10
2938.47025694
 20
-14020.38742427
 30
0.0
  0
VERTEX
  8
CTSED
  6
CONTINUOUS
 10
2994.57439468
 20
-13946.8497974
 30
0.0
  0
VERTEX
  8
CTSED
  6
CONTINUOUS
 10
3065.89321384
 20
-13792.16720295
 30
0.0
  0
VERTEX
  8
CTSED
  6
CONTINUOUS
 10
3144.81937371
 20
-13487.87357452
 30
0.0
  0
VERTEX
  8
CTSED
  6
CONTINUOUS
 10
3223.74553358
 20
-13051.71937378
 30
0.0
  0
VERTEX
  8
CTSED
  6
CONTINUOUS
 10
3286.50609445
 20
-12542.66149123
 30
0.0
  0
VERTEX
  8
CTSED
  6
CONTINUOUS
 10
3283.65334168
 20
-12432.98899599
 30
0.0
  0
VERTEX
  8
CTSED
  6
CONTINUOUS
 10
3273.1932482
 20
-11911.88615731
 30
0.0
  0
VERTEX
  8
CTSED
  6
CONTINUOUS
 10
3261.78223714
 20
-11522.64389095
 30
0.0
  0
SEQEND
  8
CTSED
  6
CONTINUOUS
  0
INSERT
  8
CTSED
  6
CONTINUOUS
  2
*X4
 10
0.0
 20
0.0
 30
0.0
  0
ENDSEC
  0
EOF
